  0
SECTION
  2
HEADER
  9
$ACADVER
  1
AC1014
  9
$ACADMAINTVER
 70
     9
  9
$DWGCODEPAGE
  3
MAC-ROMAN
  9
$INSBASE
 10
0.0
 20
0.0
 30
0.0
  9
$EXTMIN
 10
1.000000000000000E+20
 20
1.000000000000000E+20
 30
1.000000000000000E+20
  9
$EXTMAX
 10
-1.000000000000000E+20
 20
-1.000000000000000E+20
 30
-1.000000000000000E+20
  9
$LIMMIN
 10
0.0
 20
0.0
  9
$LIMMAX
 10
12.0
 20
9.0
  9
$ORTHOMODE
 70
     0
  9
$REGENMODE
 70
     1
  9
$FILLMODE
 70
     1
  9
$QTEXTMODE
 70
     0
  9
$MIRRTEXT
 70
     1
  9
$DRAGMODE
 70
     2
  9
$LTSCALE
 40
25.4
  9
$OSMODE
 70
    37
  9
$ATTMODE
 70
     1
  9
$TEXTSIZE
 40
0.2
  9
$TRACEWID
 40
0.05
  9
$TEXTSTYLE
  7
STANDARD
  9
$CLAYER
  8
0
  9
$CELTYPE
  6
BYLAYER
  9
$CECOLOR
 62
   256
  9
$CELTSCALE
 40
1.0
  9
$DELOBJ
 70
     1
  9
$DISPSILH
 70
     0
  9
$DIMSCALE
 40
1.0
  9
$DIMASZ
 40
0.18
  9
$DIMEXO
 40
0.0625
  9
$DIMDLI
 40
0.38
  9
$DIMRND
 40
0.0
  9
$DIMDLE
 40
0.0
  9
$DIMEXE
 40
0.18
  9
$DIMTP
 40
0.0
  9
$DIMTM
 40
0.0
  9
$DIMTXT
 40
0.18
  9
$DIMCEN
 40
0.09
  9
$DIMTSZ
 40
0.0
  9
$DIMTOL
 70
     0
  9
$DIMLIM
 70
     0
  9
$DIMTIH
 70
     1
  9
$DIMTOH
 70
     1
  9
$DIMSE1
 70
     0
  9
$DIMSE2
 70
     0
  9
$DIMTAD
 70
     0
  9
$DIMZIN
 70
     0
  9
$DIMBLK
  1

  9
$DIMASO
 70
     1
  9
$DIMSHO
 70
     1
  9
$DIMPOST
  1

  9
$DIMAPOST
  1

  9
$DIMALT
 70
     0
  9
$DIMALTD
 70
     2
  9
$DIMALTF
 40
25.4
  9
$DIMLFAC
 40
1.0
  9
$DIMTOFL
 70
     0
  9
$DIMTVP
 40
0.0
  9
$DIMTIX
 70
     0
  9
$DIMSOXD
 70
     0
  9
$DIMSAH
 70
     0
  9
$DIMBLK1
  1

  9
$DIMBLK2
  1

  9
$DIMSTYLE
  2
STANDARD
  9
$DIMCLRD
 70
     0
  9
$DIMCLRE
 70
     0
  9
$DIMCLRT
 70
     0
  9
$DIMTFAC
 40
1.0
  9
$DIMGAP
 40
0.09
  9
$DIMJUST
 70
     0
  9
$DIMSD1
 70
     0
  9
$DIMSD2
 70
     0
  9
$DIMTOLJ
 70
     1
  9
$DIMTZIN
 70
     0
  9
$DIMALTZ
 70
     0
  9
$DIMALTTZ
 70
     0
  9
$DIMFIT
 70
     3
  9
$DIMUPT
 70
     0
  9
$DIMUNIT
 70
     2
  9
$DIMDEC
 70
     4
  9
$DIMTDEC
 70
     4
  9
$DIMALTU
 70
     2
  9
$DIMALTTD
 70
     2
  9
$DIMTXSTY
  7
STANDARD
  9
$DIMAUNIT
 70
     0
  9
$LUNITS
 70
     2
  9
$LUPREC
 70
     4
  9
$SKETCHINC
 40
0.1
  9
$FILLETRAD
 40
0.5
  9
$AUNITS
 70
     0
  9
$AUPREC
 70
     0
  9
$MENU
  1
.
  9
$ELEVATION
 40
0.0
  9
$PELEVATION
 40
0.0
  9
$THICKNESS
 40
0.0
  9
$LIMCHECK
 70
     0
  9
$CHAMFERA
 40
0.0
  9
$CHAMFERB
 40
0.0
  9
$CHAMFERC
 40
0.0
  9
$CHAMFERD
 40
0.0
  9
$SKPOLY
 70
     0
  9
$TDCREATE
 40
2459046.66898309
  9
$TDUPDATE
 40
2459046.668984155
  9
$TDINDWG
 40
0.0000000116
  9
$TDUSRTIMER
 40
0.0000000116
  9
$USRTIMER
 70
     1
  9
$ANGBASE
 50
0.0
  9
$ANGDIR
 70
     0
  9
$PDMODE
 70
     0
  9
$PDSIZE
 40
0.0
  9
$PLINEWID
 40
0.0
  9
$COORDS
 70
     1
  9
$SPLFRAME
 70
     0
  9
$SPLINETYPE
 70
     6
  9
$SPLINESEGS
 70
     8
  9
$ATTDIA
 70
     0
  9
$ATTREQ
 70
     1
  9
$HANDLING
 70
     1
  9
$HANDSEED
  5
71A
  9
$SURFTAB1
 70
     6
  9
$SURFTAB2
 70
     6
  9
$SURFTYPE
 70
     6
  9
$SURFU
 70
     6
  9
$SURFV
 70
     6
  9
$UCSNAME
  2

  9
$UCSORG
 10
0.0
 20
0.0
 30
0.0
  9
$UCSXDIR
 10
1.0
 20
0.0
 30
0.0
  9
$UCSYDIR
 10
0.0
 20
1.0
 30
0.0
  9
$PUCSNAME
  2

  9
$PUCSORG
 10
0.0
 20
0.0
 30
0.0
  9
$PUCSXDIR
 10
1.0
 20
0.0
 30
0.0
  9
$PUCSYDIR
 10
0.0
 20
1.0
 30
0.0
  9
$USERI1
 70
     0
  9
$USERI2
 70
     0
  9
$USERI3
 70
     0
  9
$USERI4
 70
     0
  9
$USERI5
 70
     0
  9
$USERR1
 40
0.0
  9
$USERR2
 40
0.0
  9
$USERR3
 40
0.0
  9
$USERR4
 40
0.0
  9
$USERR5
 40
0.0
  9
$WORLDVIEW
 70
     1
  9
$SHADEDGE
 70
     3
  9
$SHADEDIF
 70
    70
  9
$TILEMODE
 70
     1
  9
$MAXACTVP
 70
    64
  9
$PINSBASE
 10
0.0
 20
0.0
 30
0.0
  9
$PLIMCHECK
 70
     0
  9
$PEXTMIN
 10
1.000000000000000E+20
 20
1.000000000000000E+20
 30
1.000000000000000E+20
  9
$PEXTMAX
 10
-1.000000000000000E+20
 20
-1.000000000000000E+20
 30
-1.000000000000000E+20
  9
$PLIMMIN
 10
0.0
 20
0.0
  9
$PLIMMAX
 10
12.0
 20
9.0
  9
$UNITMODE
 70
     0
  9
$VISRETAIN
 70
     1
  9
$PLINEGEN
 70
     0
  9
$PSLTSCALE
 70
     1
  9
$TREEDEPTH
 70
  3020
  9
$PICKSTYLE
 70
     1
  9
$CMLSTYLE
  2
STANDARD
  9
$CMLJUST
 70
     0
  9
$CMLSCALE
 40
1.0
  9
$PROXYGRAPHICS
 70
     1
  9
$MEASUREMENT
 70
     1
  0
ENDSEC
  0
SECTION
  2
CLASSES
  0
CLASS
  1
ACDBDICTIONARYWDFLT
  2
AcDbDictionaryWithDefault
  3
ObjectDBX Classes
 90
        0
280
     0
281
     0
  0
CLASS
  1
VISUALSTYLE
  2
AcDbVisualStyle
  3
ObjectDBX Classes
 90
     4095
280
     0
281
     0
  0
CLASS
  1
MATERIAL
  2
AcDbMaterial
  3
ObjectDBX Classes
 90
     1153
280
     0
281
     0
  0
CLASS
  1
SCALE
  2
AcDbScale
  3
ObjectDBX Classes
 90
     1153
280
     0
281
     0
  0
CLASS
  1
TABLESTYLE
  2
AcDbTableStyle
  3
ObjectDBX Classes
 90
     4095
280
     0
281
     0
  0
CLASS
  1
MLEADERSTYLE
  2
AcDbMLeaderStyle
  3
ACDB_MLEADERSTYLE_CLASS
 90
     4095
280
     0
281
     0
  0
CLASS
  1
SUN
  2
AcDbSun
  3
SCENEOE
 90
     1153
280
     0
281
     0
  0
CLASS
  1
DICTIONARYVAR
  2
AcDbDictionaryVar
  3
ObjectDBX Classes
 90
        0
280
     0
281
     0
  0
CLASS
  1
XRECORD
  2
AcDbXrecord
  3
ObjectDBX Classes
 90
        0
280
     0
281
     0
  0
CLASS
  1
LWPOLYLINE
  2
AcDbPolyline
  3
ObjectDBX Classes
 90
        0
280
     0
281
     1
  0
CLASS
  1
HATCH
  2
AcDbHatch
  3
ObjectDBX Classes
 90
        0
280
     0
281
     1
  0
CLASS
  1
ACDBPLACEHOLDER
  2
AcDbPlaceHolder
  3
ObjectDBX Classes
 90
        0
280
     0
281
     0
  0
CLASS
  1
LAYOUT
  2
AcDbLayout
  3
ObjectDBX Classes
 90
        0
280
     0
281
     0
  0
ENDSEC
  0
SECTION
  2
TABLES
  0
TABLE
  2
VPORT
  5
8
102
{ACAD_XDICTIONARY
360
6FF
102
}
330
0
100
AcDbSymbolTable
 70
     1
  0
VPORT
  5
29
330
8
100
AcDbSymbolTableRecord
100
AcDbViewportTableRecord
  2
*ACTIVE
 70
     0
 10
0.0
 20
0.0
 11
1.0
 21
1.0
 12
0.0
 22
0.0
 13
0.0
 23
0.0
 14
0.5
 24
0.5
 15
0.5
 25
0.5
 16
0.0
 26
0.0
 36
1.0
 17
61.0993681091246
 27
21.82905381869732
 37
0.0000000000000568
 40
216.9808884827451
 41
1.3333
 42
42.81760027191017
 43
-318.6877290620132
 44
25055.91227093799
 50
0.0
 51
0.0
 71
     1
 72
   100
 73
     1
 74
     3
 75
     0
 76
     0
 77
     0
 78
     0
  0
ENDTAB
  0
TABLE
  2
LTYPE
  5
5
330
0
100
AcDbSymbolTable
 70
     1
  0
LTYPE
  5
14
330
5
100
AcDbSymbolTableRecord
100
AcDbLinetypeTableRecord
  2
BYBLOCK
 70
     0
  3

 72
    65
 73
     0
 40
0.0
  0
LTYPE
  5
15
330
5
100
AcDbSymbolTableRecord
100
AcDbLinetypeTableRecord
  2
BYLAYER
 70
     0
  3

 72
    65
 73
     0
 40
0.0
  0
LTYPE
  5
16
330
5
100
AcDbSymbolTableRecord
100
AcDbLinetypeTableRecord
  2
CONTINUOUS
 70
     0
  3
Solid line
 72
    65
 73
     0
 40
0.0
  0
ENDTAB
  0
TABLE
  2
LAYER
  5
2
330
0
100
AcDbSymbolTable
 70
     2
  0
LAYER
  5
10
330
2
100
AcDbSymbolTableRecord
100
AcDbLayerTableRecord
  2
0
 70
     0
 62
    13
  6
CONTINUOUS
  0
LAYER
  5
6E
330
2
100
AcDbSymbolTableRecord
100
AcDbLayerTableRecord
  2
CONSTRUCTION
 70
     0
 62
   176
  6
CONTINUOUS
  0
ENDTAB
  0
TABLE
  2
STYLE
  5
3
330
0
100
AcDbSymbolTable
 70
     2
  0
STYLE
  5
11
330
3
100
AcDbSymbolTableRecord
100
AcDbTextStyleTableRecord
  2
STANDARD
 70
     0
 40
0.0
 41
1.0
 50
0.0
 71
     0
 42
0.2
  3
txt
  4

  0
STYLE
  5
6F
330
3
100
AcDbSymbolTableRecord
100
AcDbTextStyleTableRecord
  2
TAHOMA
 70
     0
 40
0.0
 41
1.0
 50
0.0
 71
     0
 42
0.2
  3
Tahoma
  4

1001
ACAD
1000
Tahoma
1071
       34
  0
ENDTAB
  0
TABLE
  2
VIEW
  5
6
330
0
100
AcDbSymbolTable
 70
     0
  0
ENDTAB
  0
TABLE
  2
UCS
  5
7
330
0
100
AcDbSymbolTable
 70
     0
  0
ENDTAB
  0
TABLE
  2
APPID
  5
9
330
0
100
AcDbSymbolTable
 70
     3
  0
APPID
  5
12
330
9
100
AcDbSymbolTableRecord
100
AcDbRegAppTableRecord
  2
ACAD
 70
     0
  0
APPID
  5
77
330
9
100
AcDbSymbolTableRecord
100
AcDbRegAppTableRecord
  2
ACAD_MATERIAL_MAPPER
 70
     0
  0
APPID
  5
719
330
9
100
AcDbSymbolTableRecord
100
AcDbRegAppTableRecord
  2
ACAD_MLEADERVER
 70
     0
  0
ENDTAB
  0
TABLE
  2
DIMSTYLE
  5
A
330
0
100
AcDbSymbolTable
 70
     2
  0
DIMSTYLE
105
27
330
A
100
AcDbSymbolTableRecord
100
AcDbDimStyleTableRecord
  2
STANDARD
 70
     0
  3

  4

  5

  6

  7

 40
1.0
 41
0.18
 42
0.0625
 43
0.38
 44
0.18
 45
0.0
 46
0.0
 47
0.0
 48
0.0
140
0.18
141
0.09
142
0.0
143
25.4
144
1.0
145
0.0
146
1.0
147
0.09
 71
     0
 72
     0
 73
     1
 74
     1
 75
     0
 76
     0
 77
     0
 78
     0
170
     0
171
     2
172
     0
173
     0
174
     0
175
     0
176
     0
177
     0
178
     0
270
     2
271
     4
272
     4
273
     2
274
     2
340
11
275
     0
280
     0
281
     0
282
     0
283
     1
284
     0
285
     0
286
     0
287
     3
288
     0
  0
DIMSTYLE
105
70
330
A
100
AcDbSymbolTableRecord
100
AcDbDimStyleTableRecord
  2
DIMENSIONS
 70
     0
  3
mm
  4

  5

  6

  7

 40
1.0
 41
12.7
 42
12.7
 43
0.38
 44
12.7
 45
0.0
 46
0.0
 47
0.0
 48
0.0
140
25.4
141
0.09
142
0.0
143
25.4
144
1.0
145
0.0
146
1.0
147
2.54
 71
     0
 72
     0
 73
     1
 74
     1
 75
     0
 76
     0
 77
     0
 78
     0
170
     0
171
     2
172
     0
173
     0
174
     0
175
     0
176
     0
177
     0
178
     0
270
     2
271
     1
272
     4
273
     2
274
     2
340
6F
275
     0
280
     0
281
     0
282
     0
283
     1
284
     0
285
     0
286
     0
287
     3
288
     0
  0
ENDTAB
  0
TABLE
  2
BLOCK_RECORD
  5
1
330
0
100
AcDbSymbolTable
 70
     2
  0
BLOCK_RECORD
  5
1F
330
1
100
AcDbSymbolTableRecord
100
AcDbBlockTableRecord
  2
*MODEL_SPACE
  0
BLOCK_RECORD
  5
1B
330
1
100
AcDbSymbolTableRecord
100
AcDbBlockTableRecord
  2
*PAPER_SPACE
  0
BLOCK_RECORD
  5
71
330
1
100
AcDbSymbolTableRecord
100
AcDbBlockTableRecord
  2
BARDAGE_BOIS_VICKING_PROTA
  0
BLOCK_RECORD
  5
74
330
1
100
AcDbSymbolTableRecord
100
AcDbBlockTableRecord
  2
SUSAN
  0
ENDTAB
  0
ENDSEC
  0
SECTION
  2
BLOCKS
  0
BLOCK
  5
20
330
1F
100
AcDbEntity
  8
0
100
AcDbBlockBegin
  2
*MODEL_SPACE
 70
     0
 10
0.0
 20
0.0
 30
0.0
  3
*MODEL_SPACE
  1

  0
ENDBLK
  5
21
330
1F
100
AcDbEntity
  8
0
100
AcDbBlockEnd
  0
BLOCK
  5
1C
330
1B
100
AcDbEntity
 67
     1
  8
0
100
AcDbBlockBegin
  2
*PAPER_SPACE
 70
     0
 10
0.0
 20
0.0
 30
0.0
  3
*PAPER_SPACE
  1

  0
ENDBLK
  5
1D
330
1B
100
AcDbEntity
 67
     1
  8
0
100
AcDbBlockEnd
  0
BLOCK
  5
72
330
71
100
AcDbEntity
  8
0
100
AcDbBlockBegin
  2
BARDAGE_BOIS_VICKING_PROTA
 70
     0
 10
0.0
 20
0.0
 30
0.0
  3
BARDAGE_BOIS_VICKING_PROTA
  1

  0
POLYLINE
  5
78
330
71
100
AcDbEntity
  8
0
 62
     0
100
AcDbPolyFaceMesh
 66
     1
 10
0.0
 20
0.0
 30
0.0
 70
    64
 71
    89
 72
    87
1001
ACAD_MATERIAL_MAPPER
1070
     1
1070
     1
1070
     1
1011
-0.0000000000000032
1021
0.0
1031
0.0
1011
25.39999999999999
1021
0.0
1031
0.0
1011
-0.0000000000000032
1021
25.4
1031
0.0
1011
-0.0000000000000032
1021
0.0
1031
1.0
  0
VERTEX
  5
79
330
78
100
AcDbEntity
  8
0
 62
     0
100
AcDbVertex
100
AcDbPolyFaceMeshVertex
 10
46.10025152572641
 20
0.0
 30
0.0
 70
   192
  0
VERTEX
  5
7A
330
78
100
AcDbEntity
  8
0
 62
     0
100
AcDbVertex
100
AcDbPolyFaceMeshVertex
 10
11.09481222572007
 20
2.591033600000017
 30
-0.0000000000000029
 70
   192
  0
VERTEX
  5
7B
330
78
100
AcDbEntity
  8
0
 62
     0
100
AcDbVertex
100
AcDbPolyFaceMeshVertex
 10
11.09481222572007
 20
0.0
 30
0.0
 70
   192
  0
VERTEX
  5
7C
330
78
100
AcDbEntity
  8
0
 62
     0
100
AcDbVertex
100
AcDbPolyFaceMeshVertex
 10
11.16376194971793
 20
2.657288523988976
 30
-0.0000000000000029
 70
   192
  0
VERTEX
  5
7D
330
78
100
AcDbEntity
  8
0
 62
     0
100
AcDbVertex
100
AcDbPolyFaceMeshVertex
 10
11.18218127140227
 20
2.962268297126937
 30
-0.0000000000000029
 70
   192
  0
VERTEX
  5
7E
330
78
100
AcDbEntity
  8
0
 62
     0
100
AcDbVertex
100
AcDbPolyFaceMeshVertex
 10
11.24161682091701
 20
3.261967060702137
 30
-0.0000000000000029
 70
   192
  0
VERTEX
  5
7F
330
78
100
AcDbEntity
  8
0
 62
     0
100
AcDbVertex
100
AcDbPolyFaceMeshVertex
 10
11.3409797309809
 20
3.550894292956588
 30
-0.0000000000000029
 70
   192
  0
VERTEX
  5
80
330
78
100
AcDbEntity
  8
0
 62
     0
100
AcDbVertex
100
AcDbPolyFaceMeshVertex
 10
11.4784496596843
 20
3.823756808038652
 30
-0.0000000000000029
 70
   192
  0
VERTEX
  5
81
330
78
100
AcDbEntity
  8
0
 62
     0
100
AcDbVertex
100
AcDbPolyFaceMeshVertex
 10
11.6515081393978
 20
4.07555572788092
 30
-0.0000000000000029
 70
   192
  0
VERTEX
  5
82
330
78
100
AcDbEntity
  8
0
 62
     0
100
AcDbVertex
100
AcDbPolyFaceMeshVertex
 10
11.85698471543932
 20
4.301678062321489
 30
-0.0000000000000029
 70
   192
  0
VERTEX
  5
83
330
78
100
AcDbEntity
  8
0
 62
     0
100
AcDbVertex
100
AcDbPolyFaceMeshVertex
 10
12.09111502923055
 20
4.49798121970463
 30
-0.0000000000000029
 70
   192
  0
VERTEX
  5
84
330
78
100
AcDbEntity
  8
0
 62
     0
100
AcDbVertex
100
AcDbPolyFaceMeshVertex
 10
12.34960978185459
 20
4.660868899718923
 30
-0.0000000000000029
 70
   192
  0
VERTEX
  5
85
330
78
100
AcDbEntity
  8
0
 62
     0
100
AcDbVertex
100
AcDbPolyFaceMeshVertex
 10
12.62773331458978
 20
4.787356978103787
 30
-0.0000000000000029
 70
   192
  0
VERTEX
  5
86
330
78
100
AcDbEntity
  8
0
 62
     0
100
AcDbVertex
100
AcDbPolyFaceMeshVertex
 10
12.92039036681607
 20
4.87512817620871
 30
-0.0000000000000029
 70
   192
  0
VERTEX
  5
87
330
78
100
AcDbEntity
  8
0
 62
     0
100
AcDbVertex
100
AcDbPolyFaceMeshVertex
 10
13.22221942187708
 20
4.922574513849829
 30
-0.0000000000000029
 70
   192
  0
VERTEX
  5
88
330
78
100
AcDbEntity
  8
0
 62
     0
100
AcDbVertex
100
AcDbPolyFaceMeshVertex
 10
13.53387831376758
 20
4.934772325810124
 30
-0.0000000000000029
 70
   192
  0
VERTEX
  5
89
330
78
100
AcDbEntity
  8
0
 62
     0
100
AcDbVertex
100
AcDbPolyFaceMeshVertex
 10
24.25888491376742
 20
4.934772325810124
 30
-0.0000000000000029
 70
   192
  0
VERTEX
  5
8A
330
78
100
AcDbEntity
  8
0
 62
     0
100
AcDbVertex
100
AcDbPolyFaceMeshVertex
 10
24.25888491376742
 20
9.822500225810385
 30
-0.0000000000000059
 70
   192
  0
VERTEX
  5
8B
330
78
100
AcDbEntity
  8
0
 62
     0
100
AcDbVertex
100
AcDbPolyFaceMeshVertex
 10
0.0183831493778579
 20
12.03508028656742
 30
-0.0000000000000052
 70
   192
  0
VERTEX
  5
8C
330
78
100
AcDbEntity
  8
0
 62
     0
100
AcDbVertex
100
AcDbPolyFaceMeshVertex
 10
0.0
 20
11.15742937666294
 30
-0.0000000000000059
 70
   192
  0
VERTEX
  5
8D
330
78
100
AcDbEntity
  8
0
 62
     0
100
AcDbVertex
100
AcDbPolyFaceMeshVertex
 10
0.1545227772963759
 20
12.90230290017204
 30
-0.0000000000000017
 70
   192
  0
VERTEX
  5
8E
330
78
100
AcDbEntity
  8
0
 62
     0
100
AcDbVertex
100
AcDbPolyFaceMeshVertex
 10
0.4059499311303202
 20
13.74336975016213
 30
0.0000000000000047
 70
   192
  0
VERTEX
  5
8F
330
78
100
AcDbEntity
  8
0
 62
     0
100
AcDbVertex
100
AcDbPolyFaceMeshVertex
 10
0.768104867761917
 20
14.54302771561378
 30
0.0000000000000146
 70
   192
  0
VERTEX
  5
90
330
78
100
AcDbEntity
  8
0
 62
     0
100
AcDbVertex
100
AcDbPolyFaceMeshVertex
 10
1.234419746547418
 20
15.28677464411902
 30
0.0000000000000265
 70
   192
  0
VERTEX
  5
91
330
78
100
AcDbEntity
  8
0
 62
     0
100
AcDbVertex
100
AcDbPolyFaceMeshVertex
 10
1.796437740024599
 20
15.9611223547587
 30
0.0000000000000413
 70
   192
  0
VERTEX
  5
92
330
78
100
AcDbEntity
  8
0
 62
     0
100
AcDbVertex
100
AcDbPolyFaceMeshVertex
 10
2.443966402235358
 20
16.553841252258
 30
0.0000000000000583
 70
   192
  0
VERTEX
  5
93
330
78
100
AcDbEntity
  8
0
 62
     0
100
AcDbVertex
100
AcDbPolyFaceMeshVertex
 10
3.165262513260452
 20
17.0541821161268
 30
0.0000000000000773
 70
   192
  0
VERTEX
  5
94
330
78
100
AcDbEntity
  8
0
 62
     0
100
AcDbVertex
100
AcDbPolyFaceMeshVertex
 10
3.947245047729431
 20
17.45307104254978
 30
0.0000000000000977
 70
   192
  0
VERTEX
  5
95
330
78
100
AcDbEntity
  8
0
 62
     0
100
AcDbVertex
100
AcDbPolyFaceMeshVertex
 10
4.77573240502563
 20
17.74327400366048
 30
0.0000000000001196
 70
   192
  0
VERTEX
  5
96
330
78
100
AcDbEntity
  8
0
 62
     0
100
AcDbVertex
100
AcDbPolyFaceMeshVertex
 10
5.635699598913434
 20
17.91952803985278
 30
0.0000000000001415
 70
   192
  0
VERTEX
  5
97
330
78
100
AcDbEntity
  8
0
 62
     0
100
AcDbVertex
100
AcDbPolyFaceMeshVertex
 10
6.511550742337135
 20
17.97863670588825
 30
0.0000000000001647
 70
   192
  0
VERTEX
  5
98
330
78
100
AcDbEntity
  8
0
 62
     0
100
AcDbVertex
100
AcDbPolyFaceMeshVertex
 10
101.2250619423371
 20
17.97863670588825
 30
0.0000000000001647
 70
   192
  0
VERTEX
  5
99
330
78
100
AcDbEntity
  8
0
 62
     0
100
AcDbVertex
100
AcDbPolyFaceMeshVertex
 10
50.16265381792222
 20
6.160832846953072
 30
0.0000000000000873
 70
   192
  0
VERTEX
  5
9A
330
78
100
AcDbEntity
  8
0
 62
     0
100
AcDbVertex
100
AcDbPolyFaceMeshVertex
 10
55.22890690878848
 20
6.160832846953072
 30
0.0000000000000873
 70
   192
  0
VERTEX
  5
9B
330
78
100
AcDbEntity
  8
0
 62
     0
100
AcDbVertex
100
AcDbPolyFaceMeshVertex
 10
70.39192768213935
 20
6.160832846953072
 30
0.0000000000000873
 70
   192
  0
VERTEX
  5
9C
330
78
100
AcDbEntity
  8
0
 62
     0
100
AcDbVertex
100
AcDbPolyFaceMeshVertex
 10
59.39916892040587
 20
0.0622728380424256
 30
0.0
 70
   192
  0
VERTEX
  5
9D
330
78
100
AcDbEntity
  8
0
 62
     0
100
AcDbVertex
100
AcDbPolyFaceMeshVertex
 10
59.43575296710237
 20
0.0
 30
0.0
 70
   192
  0
VERTEX
  5
9E
330
78
100
AcDbEntity
  8
0
 62
     0
100
AcDbVertex
100
AcDbPolyFaceMeshVertex
 10
66.32952538994341
 20
0.0
 30
0.0
 70
   192
  0
VERTEX
  5
9F
330
78
100
AcDbEntity
  8
0
 62
     0
100
AcDbVertex
100
AcDbPolyFaceMeshVertex
 10
75.45818077300584
 20
6.160832846953072
 30
0.0000000000000873
 70
   192
  0
VERTEX
  5
A0
330
78
100
AcDbEntity
  8
0
 62
     0
100
AcDbVertex
100
AcDbPolyFaceMeshVertex
 10
79.628442784623
 20
0.0622728380424256
 30
0.0
 70
   192
  0
VERTEX
  5
A1
330
78
100
AcDbEntity
  8
0
 62
     0
100
AcDbVertex
100
AcDbPolyFaceMeshVertex
 10
90.41978159556507
 20
6.160832846953072
 30
0.0000000000000873
 70
   192
  0
VERTEX
  5
A2
330
78
100
AcDbEntity
  8
0
 62
     0
100
AcDbVertex
100
AcDbPolyFaceMeshVertex
 10
86.35737930336914
 20
0.0
 30
0.0
 70
   192
  0
VERTEX
  5
A3
330
78
100
AcDbEntity
  8
0
 62
     0
100
AcDbVertex
100
AcDbPolyFaceMeshVertex
 10
95.48603468643138
 20
6.160832846953072
 30
0.0000000000000873
 70
   192
  0
VERTEX
  5
A4
330
78
100
AcDbEntity
  8
0
 62
     0
100
AcDbVertex
100
AcDbPolyFaceMeshVertex
 10
99.65629669804873
 20
0.0622728380424256
 30
0.0
 70
   192
  0
VERTEX
  5
A5
330
78
100
AcDbEntity
  8
0
 62
     0
100
AcDbVertex
100
AcDbPolyFaceMeshVertex
 10
108.8787204074979
 20
13.27280878707363
 30
0.0000000000000357
 70
   192
  0
VERTEX
  5
A6
330
78
100
AcDbEntity
  8
0
 62
     0
100
AcDbVertex
100
AcDbPolyFaceMeshVertex
 10
109.380334655701
 20
12.98420261518353
 30
0.0000000000000272
 70
   192
  0
VERTEX
  5
A7
330
78
100
AcDbEntity
  8
0
 62
     0
100
AcDbVertex
100
AcDbPolyFaceMeshVertex
 10
134.1438229257196
 20
0.0
 30
0.0
 70
   192
  0
VERTEX
  5
A8
330
78
100
AcDbEntity
  8
0
 62
     0
100
AcDbVertex
100
AcDbPolyFaceMeshVertex
 10
108.391227844719
 20
13.58467635141597
 30
0.0000000000000442
 70
   192
  0
VERTEX
  5
A9
330
78
100
AcDbEntity
  8
0
 62
     0
100
AcDbVertex
100
AcDbPolyFaceMeshVertex
 10
101.7273676064026
 20
17.85574499001939
 30
0.0000000000001224
 70
   192
  0
VERTEX
  5
AA
330
78
100
AcDbEntity
  8
0
 62
     0
100
AcDbVertex
100
AcDbPolyFaceMeshVertex
 10
102.2233409160464
 20
17.70937617468461
 30
0.0000000000000872
 70
   192
  0
VERTEX
  5
AB
330
78
100
AcDbEntity
  8
0
 62
     0
100
AcDbVertex
100
AcDbPolyFaceMeshVertex
 10
102.7118852335027
 20
17.53985389336834
 30
0.0000000000000576
 70
   192
  0
VERTEX
  5
AC
330
78
100
AcDbEntity
  8
0
 62
     0
100
AcDbVertex
100
AcDbPolyFaceMeshVertex
 10
107.9189348535013
 20
13.91911574338412
 30
0.0000000000000533
 70
   192
  0
VERTEX
  5
AD
330
78
100
AcDbEntity
  8
0
 62
     0
100
AcDbVertex
100
AcDbPolyFaceMeshVertex
 10
103.1919203471184
 20
17.34755297377299
 30
0.0000000000000343
 70
   192
  0
VERTEX
  5
AE
330
78
100
AcDbEntity
  8
0
 62
     0
100
AcDbVertex
100
AcDbPolyFaceMeshVertex
 10
103.6623848597904
 20
17.13289860904204
 30
0.0000000000000181
 70
   192
  0
VERTEX
  5
AF
330
78
100
AcDbEntity
  8
0
 62
     0
100
AcDbVertex
100
AcDbPolyFaceMeshVertex
 10
107.4628857124793
 20
14.27538748998574
 30
0.0000000000000632
 70
   192
  0
VERTEX
  5
B0
330
78
100
AcDbEntity
  8
0
 62
     0
100
AcDbVertex
100
AcDbPolyFaceMeshVertex
 10
104.1222385357997
 20
16.89636541762425
 30
0.0000000000000082
 70
   192
  0
VERTEX
  5
B1
330
78
100
AcDbEntity
  8
0
 62
     0
100
AcDbVertex
100
AcDbPolyFaceMeshVertex
 10
104.5704646008607
 20
16.63847639385341
 30
0.0000000000000047
 70
   192
  0
VERTEX
  5
B2
330
78
100
AcDbEntity
  8
0
 62
     0
100
AcDbVertex
100
AcDbPolyFaceMeshVertex
 10
105.0060719902911
 20
16.35980175156402
 30
0.0000000000000075
 70
   192
  0
VERTEX
  5
B3
330
78
100
AcDbEntity
  8
0
 62
     0
100
AcDbVertex
100
AcDbPolyFaceMeshVertex
 10
107.0240887837996
 20
14.65270384509687
 30
0.0000000000000731
 70
   192
  0
VERTEX
  5
B4
330
78
100
AcDbEntity
  8
0
 62
     0
100
AcDbVertex
100
AcDbPolyFaceMeshVertex
 10
105.4280975403383
 20
16.0609576633023
 30
0.0000000000000167
 70
   192
  0
VERTEX
  5
B5
330
78
100
AcDbEntity
  8
0
 62
     0
100
AcDbVertex
100
AcDbPolyFaceMeshVertex
 10
105.8356081178128
 20
15.74260489791802
 30
0.0000000000000329
 70
   192
  0
VERTEX
  5
B6
330
78
100
AcDbEntity
  8
0
 62
     0
100
AcDbVertex
100
AcDbPolyFaceMeshVertex
 10
106.6035142835479
 20
15.05023053123463
 30
0.0000000000000843
 70
   192
  0
VERTEX
  5
B7
330
78
100
AcDbEntity
  8
0
 62
     0
100
AcDbVertex
100
AcDbPolyFaceMeshVertex
 10
106.2277026833233
 20
15.40544735954961
 30
0.0000000000000554
 70
   192
  0
VERTEX
  5
B8
330
78
100
AcDbEntity
  8
0
 62
     0
100
AcDbVertex
100
AcDbPolyFaceMeshVertex
 10
109.8949614789836
 20
12.71949596772003
 30
0.0000000000000202
 70
   192
  0
VERTEX
  5
B9
330
78
100
AcDbEntity
  8
0
 62
     0
100
AcDbVertex
100
AcDbPolyFaceMeshVertex
 10
110.4214629951279
 20
12.47927413284436
 30
0.0000000000000138
 70
   192
  0
VERTEX
  5
BA
330
78
100
AcDbEntity
  8
0
 62
     0
100
AcDbVertex
100
AcDbPolyFaceMeshVertex
 10
110.958675065994
 20
12.26406826078394
 30
0.0000000000000075
 70
   192
  0
VERTEX
  5
BB
330
78
100
AcDbEntity
  8
0
 62
     0
100
AcDbVertex
100
AcDbPolyFaceMeshVertex
 10
111.5054098715244
 20
12.07435418941584
 30
0.0000000000000026
 70
   192
  0
VERTEX
  5
BC
330
78
100
AcDbEntity
  8
0
 62
     0
100
AcDbVertex
100
AcDbPolyFaceMeshVertex
 10
112.0604585361125
 20
11.91055139214957
 30
-0.0000000000000024
 70
   192
  0
VERTEX
  5
BD
330
78
100
AcDbEntity
  8
0
 62
     0
100
AcDbVertex
100
AcDbPolyFaceMeshVertex
 10
112.6225938015262
 20
11.77302205043779
 30
-0.0000000000000059
 70
   192
  0
VERTEX
  5
BE
330
78
100
AcDbEntity
  8
0
 62
     0
100
AcDbVertex
100
AcDbPolyFaceMeshVertex
 10
128.6106255743134
 20
10.91627631675826
 30
-0.0000000000000059
 70
   192
  0
VERTEX
  5
BF
330
78
100
AcDbEntity
  8
0
 62
     0
100
AcDbVertex
100
AcDbPolyFaceMeshVertex
 10
130.1101740481729
 20
9.35573640260452
 30
-0.0000000000000059
 70
   192
  0
VERTEX
  5
C0
330
78
100
AcDbEntity
  8
0
 62
     0
100
AcDbVertex
100
AcDbPolyFaceMeshVertex
 10
131.2935244960869
 20
10.77250863867312
 30
-0.0000000000000059
 70
   192
  0
VERTEX
  5
C1
330
78
100
AcDbEntity
  8
0
 62
     0
100
AcDbVertex
100
AcDbPolyFaceMeshVertex
 10
134.1072316435527
 20
2.947279846267111
 30
0.0000000000000083
 70
   192
  0
VERTEX
  5
C2
330
78
100
AcDbEntity
  8
0
 62
     0
100
AcDbVertex
100
AcDbPolyFaceMeshVertex
 10
134.1438229257196
 20
2.591033600000017
 30
-0.0000000000000029
 70
   192
  0
VERTEX
  5
C3
330
78
100
AcDbEntity
  8
0
 62
     0
100
AcDbVertex
100
AcDbPolyFaceMeshVertex
 10
135.2156047550795
 20
5.078289138729651
 30
0.0000000000000746
 70
   192
  0
VERTEX
  5
C4
330
78
100
AcDbEntity
  8
0
 62
     0
100
AcDbVertex
100
AcDbPolyFaceMeshVertex
 10
143.2947497079596
 20
10.12940268008348
 30
-0.0000000000000059
 70
   192
  0
VERTEX
  5
C5
330
78
100
AcDbEntity
  8
0
 62
     0
100
AcDbVertex
100
AcDbPolyFaceMeshVertex
 10
134.9315350242171
 20
4.860218742027139
 30
0.0000000000000676
 70
   192
  0
VERTEX
  5
C6
330
78
100
AcDbEntity
  8
0
 62
     0
100
AcDbVertex
100
AcDbPolyFaceMeshVertex
 10
134.6820820988214
 20
4.603268264460914
 30
0.0000000000000598
 70
   192
  0
VERTEX
  5
C7
330
78
100
AcDbEntity
  8
0
 62
     0
100
AcDbVertex
100
AcDbPolyFaceMeshVertex
 10
134.4725170259116
 20
4.31286717953494
 30
0.0000000000000506
 70
   192
  0
VERTEX
  5
C8
330
78
100
AcDbEntity
  8
0
 62
     0
100
AcDbVertex
100
AcDbPolyFaceMeshVertex
 10
134.3072680051213
 20
3.995151786395376
 30
0.0000000000000408
 70
   192
  0
VERTEX
  5
C9
330
78
100
AcDbEntity
  8
0
 62
     0
100
AcDbVertex
100
AcDbPolyFaceMeshVertex
 10
134.189826818947
 20
3.656835547204644
 30
0.0000000000000302
 70
   192
  0
VERTEX
  5
CA
330
78
100
AcDbEntity
  8
0
 62
     0
100
AcDbVertex
100
AcDbPolyFaceMeshVertex
 10
134.1226750498892
 20
3.305067228815418
 30
0.0000000000000196
 70
   192
  0
VERTEX
  5
CB
330
78
100
AcDbEntity
  8
0
 62
     0
100
AcDbVertex
100
AcDbPolyFaceMeshVertex
 10
135.5282887764812
 20
5.252871533803985
 30
0.0000000000000802
 70
   192
  0
VERTEX
  5
CC
330
78
100
AcDbEntity
  8
0
 62
     0
100
AcDbVertex
100
AcDbPolyFaceMeshVertex
 10
135.8629799412971
 20
5.380276926563335
 30
0.0000000000000838
 70
   192
  0
VERTEX
  5
CD
330
78
100
AcDbEntity
  8
0
 62
     0
100
AcDbVertex
100
AcDbPolyFaceMeshVertex
 10
136.212606082047
 20
5.45781318656025
 30
0.0000000000000866
 70
   192
  0
VERTEX
  5
CE
330
78
100
AcDbEntity
  8
0
 62
     0
100
AcDbVertex
100
AcDbPolyFaceMeshVertex
 10
136.5697794488213
 20
5.483841939452999
 30
0.0000000000000873
 70
   192
  0
VERTEX
  5
CF
330
78
100
AcDbEntity
  8
0
 62
     0
100
AcDbVertex
100
AcDbPolyFaceMeshVertex
 10
143.5033599488213
 20
5.483841939452999
 30
0.0000000000000873
 70
   192
  0
VERTEX
  5
D0
330
78
100
AcDbEntity
  8
0
 62
     0
100
AcDbVertex
100
AcDbPolyFaceMeshVertex
 10
145.9739819889328
 20
9.12416788746193
 30
-0.0000000000000059
 70
   192
  0
VERTEX
  5
D1
330
78
100
AcDbEntity
  8
0
 62
     0
100
AcDbVertex
100
AcDbPolyFaceMeshVertex
 10
145.9739819889328
 20
6.472820287462014
 30
-0.0000000000000029
 70
   192
  0
VERTEX
  5
D2
330
78
100
AcDbEntity
  8
0
 62
     0
100
AcDbFaceRecord
 10
0.0
 20
0.0
 30
0.0
 70
   128
 71
    -1
 72
     2
 73
     3
  0
VERTEX
  5
D3
330
78
100
AcDbEntity
  8
0
 62
     0
100
AcDbFaceRecord
 10
0.0
 20
0.0
 30
0.0
 70
   128
 71
    -2
 72
    -1
 73
     4
  0
VERTEX
  5
D4
330
78
100
AcDbEntity
  8
0
 62
     0
100
AcDbFaceRecord
 10
0.0
 20
0.0
 30
0.0
 70
   128
 71
    -4
 72
    -1
 73
     5
  0
VERTEX
  5
D5
330
78
100
AcDbEntity
  8
0
 62
     0
100
AcDbFaceRecord
 10
0.0
 20
0.0
 30
0.0
 70
   128
 71
    -5
 72
    -1
 73
     6
  0
VERTEX
  5
D6
330
78
100
AcDbEntity
  8
0
 62
     0
100
AcDbFaceRecord
 10
0.0
 20
0.0
 30
0.0
 70
   128
 71
    -6
 72
    -1
 73
     7
  0
VERTEX
  5
D7
330
78
100
AcDbEntity
  8
0
 62
     0
100
AcDbFaceRecord
 10
0.0
 20
0.0
 30
0.0
 70
   128
 71
    -7
 72
    -1
 73
     8
  0
VERTEX
  5
D8
330
78
100
AcDbEntity
  8
0
 62
     0
100
AcDbFaceRecord
 10
0.0
 20
0.0
 30
0.0
 70
   128
 71
    -8
 72
    -1
 73
     9
  0
VERTEX
  5
D9
330
78
100
AcDbEntity
  8
0
 62
     0
100
AcDbFaceRecord
 10
0.0
 20
0.0
 30
0.0
 70
   128
 71
    -9
 72
    -1
 73
    10
  0
VERTEX
  5
DA
330
78
100
AcDbEntity
  8
0
 62
     0
100
AcDbFaceRecord
 10
0.0
 20
0.0
 30
0.0
 70
   128
 71
   -10
 72
    -1
 73
    11
  0
VERTEX
  5
DB
330
78
100
AcDbEntity
  8
0
 62
     0
100
AcDbFaceRecord
 10
0.0
 20
0.0
 30
0.0
 70
   128
 71
   -11
 72
    -1
 73
    12
  0
VERTEX
  5
DC
330
78
100
AcDbEntity
  8
0
 62
     0
100
AcDbFaceRecord
 10
0.0
 20
0.0
 30
0.0
 70
   128
 71
   -12
 72
    -1
 73
    13
  0
VERTEX
  5
DD
330
78
100
AcDbEntity
  8
0
 62
     0
100
AcDbFaceRecord
 10
0.0
 20
0.0
 30
0.0
 70
   128
 71
   -13
 72
    -1
 73
    14
  0
VERTEX
  5
DE
330
78
100
AcDbEntity
  8
0
 62
     0
100
AcDbFaceRecord
 10
0.0
 20
0.0
 30
0.0
 70
   128
 71
   -14
 72
    -1
 73
    15
  0
VERTEX
  5
DF
330
78
100
AcDbEntity
  8
0
 62
     0
100
AcDbFaceRecord
 10
0.0
 20
0.0
 30
0.0
 70
   128
 71
   -15
 72
    -1
 73
    16
  0
VERTEX
  5
E0
330
78
100
AcDbEntity
  8
0
 62
     0
100
AcDbFaceRecord
 10
0.0
 20
0.0
 30
0.0
 70
   128
 71
   -16
 72
    -1
 73
    17
  0
VERTEX
  5
E1
330
78
100
AcDbEntity
  8
0
 62
     0
100
AcDbFaceRecord
 10
0.0
 20
0.0
 30
0.0
 70
   128
 71
   -17
 72
    -1
 73
    18
  0
VERTEX
  5
E2
330
78
100
AcDbEntity
  8
0
 62
     0
100
AcDbFaceRecord
 10
0.0
 20
0.0
 30
0.0
 70
   128
 71
   -18
 72
    19
 73
    20
  0
VERTEX
  5
E3
330
78
100
AcDbEntity
  8
0
 62
     0
100
AcDbFaceRecord
 10
0.0
 20
0.0
 30
0.0
 70
   128
 71
   -19
 72
   -18
 73
    21
  0
VERTEX
  5
E4
330
78
100
AcDbEntity
  8
0
 62
     0
100
AcDbFaceRecord
 10
0.0
 20
0.0
 30
0.0
 70
   128
 71
   -21
 72
   -18
 73
    22
  0
VERTEX
  5
E5
330
78
100
AcDbEntity
  8
0
 62
     0
100
AcDbFaceRecord
 10
0.0
 20
0.0
 30
0.0
 70
   128
 71
   -22
 72
   -18
 73
    23
  0
VERTEX
  5
E6
330
78
100
AcDbEntity
  8
0
 62
     0
100
AcDbFaceRecord
 10
0.0
 20
0.0
 30
0.0
 70
   128
 71
   -23
 72
   -18
 73
    24
  0
VERTEX
  5
E7
330
78
100
AcDbEntity
  8
0
 62
     0
100
AcDbFaceRecord
 10
0.0
 20
0.0
 30
0.0
 70
   128
 71
   -24
 72
   -18
 73
    25
  0
VERTEX
  5
E8
330
78
100
AcDbEntity
  8
0
 62
     0
100
AcDbFaceRecord
 10
0.0
 20
0.0
 30
0.0
 70
   128
 71
   -25
 72
   -18
 73
    26
  0
VERTEX
  5
E9
330
78
100
AcDbEntity
  8
0
 62
     0
100
AcDbFaceRecord
 10
0.0
 20
0.0
 30
0.0
 70
   128
 71
   -26
 72
   -18
 73
    27
  0
VERTEX
  5
EA
330
78
100
AcDbEntity
  8
0
 62
     0
100
AcDbFaceRecord
 10
0.0
 20
0.0
 30
0.0
 70
   128
 71
   -27
 72
   -18
 73
    28
  0
VERTEX
  5
EB
330
78
100
AcDbEntity
  8
0
 62
     0
100
AcDbFaceRecord
 10
0.0
 20
0.0
 30
0.0
 70
   128
 71
   -28
 72
   -18
 73
    29
  0
VERTEX
  5
EC
330
78
100
AcDbEntity
  8
0
 62
     0
100
AcDbFaceRecord
 10
0.0
 20
0.0
 30
0.0
 70
   128
 71
   -29
 72
   -18
 73
    30
  0
VERTEX
  5
ED
330
78
100
AcDbEntity
  8
0
 62
     0
100
AcDbFaceRecord
 10
0.0
 20
0.0
 30
0.0
 70
   128
 71
   -30
 72
   -18
 73
    31
  0
VERTEX
  5
EE
330
78
100
AcDbEntity
  8
0
 62
     0
100
AcDbFaceRecord
 10
0.0
 20
0.0
 30
0.0
 70
   128
 71
   -31
 72
   -18
 73
    32
  0
VERTEX
  5
EF
330
78
100
AcDbEntity
  8
0
 62
     0
100
AcDbFaceRecord
 10
0.0
 20
0.0
 30
0.0
 70
   128
 71
   -32
 72
   -18
 73
   -33
  0
VERTEX
  5
F0
330
78
100
AcDbEntity
  8
0
 62
     0
100
AcDbFaceRecord
 10
0.0
 20
0.0
 30
0.0
 70
   128
 71
   -33
 72
   -18
 73
     1
  0
VERTEX
  5
F1
330
78
100
AcDbEntity
  8
0
 62
     0
100
AcDbFaceRecord
 10
0.0
 20
0.0
 30
0.0
 70
   128
 71
   -32
 72
    33
 73
   -34
  0
VERTEX
  5
F2
330
78
100
AcDbEntity
  8
0
 62
     0
100
AcDbFaceRecord
 10
0.0
 20
0.0
 30
0.0
 70
   128
 71
   -32
 72
   -34
 73
   -35
  0
VERTEX
  5
F3
330
78
100
AcDbEntity
  8
0
 62
     0
100
AcDbFaceRecord
 10
0.0
 20
0.0
 30
0.0
 70
   128
 71
   -35
 72
    34
 73
   -36
  0
VERTEX
  5
F4
330
78
100
AcDbEntity
  8
0
 62
     0
100
AcDbFaceRecord
 10
0.0
 20
0.0
 30
0.0
 70
   128
 71
   -35
 72
    36
 73
   -37
  0
VERTEX
  5
F5
330
78
100
AcDbEntity
  8
0
 62
     0
100
AcDbFaceRecord
 10
0.0
 20
0.0
 30
0.0
 70
   128
 71
   -35
 72
    37
 73
    38
  0
VERTEX
  5
F6
330
78
100
AcDbEntity
  8
0
 62
     0
100
AcDbFaceRecord
 10
0.0
 20
0.0
 30
0.0
 70
   128
 71
   -32
 72
    35
 73
   -39
  0
VERTEX
  5
F7
330
78
100
AcDbEntity
  8
0
 62
     0
100
AcDbFaceRecord
 10
0.0
 20
0.0
 30
0.0
 70
   128
 71
   -32
 72
    39
 73
   -40
  0
VERTEX
  5
F8
330
78
100
AcDbEntity
  8
0
 62
     0
100
AcDbFaceRecord
 10
0.0
 20
0.0
 30
0.0
 70
   128
 71
   -32
 72
   -40
 73
   -41
  0
VERTEX
  5
F9
330
78
100
AcDbEntity
  8
0
 62
     0
100
AcDbFaceRecord
 10
0.0
 20
0.0
 30
0.0
 70
   128
 71
   -41
 72
    40
 73
    42
  0
VERTEX
  5
FA
330
78
100
AcDbEntity
  8
0
 62
     0
100
AcDbFaceRecord
 10
0.0
 20
0.0
 30
0.0
 70
   128
 71
   -32
 72
    41
 73
   -43
  0
VERTEX
  5
FB
330
78
100
AcDbEntity
  8
0
 62
     0
100
AcDbFaceRecord
 10
0.0
 20
0.0
 30
0.0
 70
   128
 71
   -32
 72
    43
 73
   -44
  0
VERTEX
  5
FC
330
78
100
AcDbEntity
  8
0
 62
     0
100
AcDbFaceRecord
 10
0.0
 20
0.0
 30
0.0
 70
   128
 71
   -32
 72
   -44
 73
   -45
  0
VERTEX
  5
FD
330
78
100
AcDbEntity
  8
0
 62
     0
100
AcDbFaceRecord
 10
0.0
 20
0.0
 30
0.0
 70
   128
 71
   -45
 72
   -44
 73
    46
  0
VERTEX
  5
FE
330
78
100
AcDbEntity
  8
0
 62
     0
100
AcDbFaceRecord
 10
0.0
 20
0.0
 30
0.0
 70
   128
 71
   -46
 72
    44
 73
   -47
  0
VERTEX
  5
FF
330
78
100
AcDbEntity
  8
0
 62
     0
100
AcDbFaceRecord
 10
0.0
 20
0.0
 30
0.0
 70
   128
 71
   -32
 72
    45
 73
   -48
  0
VERTEX
  5
100
330
78
100
AcDbEntity
  8
0
 62
     0
100
AcDbFaceRecord
 10
0.0
 20
0.0
 30
0.0
 70
   128
 71
   -32
 72
   -48
 73
    49
  0
VERTEX
  5
101
330
78
100
AcDbEntity
  8
0
 62
     0
100
AcDbFaceRecord
 10
0.0
 20
0.0
 30
0.0
 70
   128
 71
   -49
 72
   -48
 73
    50
  0
VERTEX
  5
102
330
78
100
AcDbEntity
  8
0
 62
     0
100
AcDbFaceRecord
 10
0.0
 20
0.0
 30
0.0
 70
   128
 71
   -50
 72
   -48
 73
    51
  0
VERTEX
  5
103
330
78
100
AcDbEntity
  8
0
 62
     0
100
AcDbFaceRecord
 10
0.0
 20
0.0
 30
0.0
 70
   128
 71
   -51
 72
    48
 73
   -52
  0
VERTEX
  5
104
330
78
100
AcDbEntity
  8
0
 62
     0
100
AcDbFaceRecord
 10
0.0
 20
0.0
 30
0.0
 70
   128
 71
   -51
 72
   -52
 73
    53
  0
VERTEX
  5
105
330
78
100
AcDbEntity
  8
0
 62
     0
100
AcDbFaceRecord
 10
0.0
 20
0.0
 30
0.0
 70
   128
 71
   -53
 72
   -52
 73
    54
  0
VERTEX
  5
106
330
78
100
AcDbEntity
  8
0
 62
     0
100
AcDbFaceRecord
 10
0.0
 20
0.0
 30
0.0
 70
   128
 71
   -54
 72
    52
 73
   -55
  0
VERTEX
  5
107
330
78
100
AcDbEntity
  8
0
 62
     0
100
AcDbFaceRecord
 10
0.0
 20
0.0
 30
0.0
 70
   128
 71
   -54
 72
   -55
 73
    56
  0
VERTEX
  5
108
330
78
100
AcDbEntity
  8
0
 62
     0
100
AcDbFaceRecord
 10
0.0
 20
0.0
 30
0.0
 70
   128
 71
   -56
 72
   -55
 73
    57
  0
VERTEX
  5
109
330
78
100
AcDbEntity
  8
0
 62
     0
100
AcDbFaceRecord
 10
0.0
 20
0.0
 30
0.0
 70
   128
 71
   -57
 72
   -55
 73
    58
  0
VERTEX
  5
10A
330
78
100
AcDbEntity
  8
0
 62
     0
100
AcDbFaceRecord
 10
0.0
 20
0.0
 30
0.0
 70
   128
 71
   -58
 72
    55
 73
   -59
  0
VERTEX
  5
10B
330
78
100
AcDbEntity
  8
0
 62
     0
100
AcDbFaceRecord
 10
0.0
 20
0.0
 30
0.0
 70
   128
 71
   -58
 72
   -59
 73
    60
  0
VERTEX
  5
10C
330
78
100
AcDbEntity
  8
0
 62
     0
100
AcDbFaceRecord
 10
0.0
 20
0.0
 30
0.0
 70
   128
 71
   -60
 72
   -59
 73
    61
  0
VERTEX
  5
10D
330
78
100
AcDbEntity
  8
0
 62
     0
100
AcDbFaceRecord
 10
0.0
 20
0.0
 30
0.0
 70
   128
 71
   -61
 72
    59
 73
   -62
  0
VERTEX
  5
10E
330
78
100
AcDbEntity
  8
0
 62
     0
100
AcDbFaceRecord
 10
0.0
 20
0.0
 30
0.0
 70
   128
 71
   -61
 72
    62
 73
    63
  0
VERTEX
  5
10F
330
78
100
AcDbEntity
  8
0
 62
     0
100
AcDbFaceRecord
 10
0.0
 20
0.0
 30
0.0
 70
   128
 71
   -46
 72
   -47
 73
    64
  0
VERTEX
  5
110
330
78
100
AcDbEntity
  8
0
 62
     0
100
AcDbFaceRecord
 10
0.0
 20
0.0
 30
0.0
 70
   128
 71
   -64
 72
   -47
 73
    65
  0
VERTEX
  5
111
330
78
100
AcDbEntity
  8
0
 62
     0
100
AcDbFaceRecord
 10
0.0
 20
0.0
 30
0.0
 70
   128
 71
   -65
 72
   -47
 73
    66
  0
VERTEX
  5
112
330
78
100
AcDbEntity
  8
0
 62
     0
100
AcDbFaceRecord
 10
0.0
 20
0.0
 30
0.0
 70
   128
 71
   -66
 72
   -47
 73
    67
  0
VERTEX
  5
113
330
78
100
AcDbEntity
  8
0
 62
     0
100
AcDbFaceRecord
 10
0.0
 20
0.0
 30
0.0
 70
   128
 71
   -67
 72
   -47
 73
    68
  0
VERTEX
  5
114
330
78
100
AcDbEntity
  8
0
 62
     0
100
AcDbFaceRecord
 10
0.0
 20
0.0
 30
0.0
 70
   128
 71
   -68
 72
   -47
 73
    69
  0
VERTEX
  5
115
330
78
100
AcDbEntity
  8
0
 62
     0
100
AcDbFaceRecord
 10
0.0
 20
0.0
 30
0.0
 70
   128
 71
   -69
 72
   -47
 73
    70
  0
VERTEX
  5
116
330
78
100
AcDbEntity
  8
0
 62
     0
100
AcDbFaceRecord
 10
0.0
 20
0.0
 30
0.0
 70
   128
 71
   -70
 72
   -47
 73
    71
  0
VERTEX
  5
117
330
78
100
AcDbEntity
  8
0
 62
     0
100
AcDbFaceRecord
 10
0.0
 20
0.0
 30
0.0
 70
   128
 71
   -71
 72
   -47
 73
    72
  0
VERTEX
  5
118
330
78
100
AcDbEntity
  8
0
 62
     0
100
AcDbFaceRecord
 10
0.0
 20
0.0
 30
0.0
 70
   128
 71
   -72
 72
   -47
 73
   -73
  0
VERTEX
  5
119
330
78
100
AcDbEntity
  8
0
 62
     0
100
AcDbFaceRecord
 10
0.0
 20
0.0
 30
0.0
 70
   128
 71
   -73
 72
    47
 73
    74
  0
VERTEX
  5
11A
330
78
100
AcDbEntity
  8
0
 62
     0
100
AcDbFaceRecord
 10
0.0
 20
0.0
 30
0.0
 70
   128
 71
   -72
 72
   -75
 73
    76
  0
VERTEX
  5
11B
330
78
100
AcDbEntity
  8
0
 62
     0
100
AcDbFaceRecord
 10
0.0
 20
0.0
 30
0.0
 70
   128
 71
   -75
 72
   -72
 73
    77
  0
VERTEX
  5
11C
330
78
100
AcDbEntity
  8
0
 62
     0
100
AcDbFaceRecord
 10
0.0
 20
0.0
 30
0.0
 70
   128
 71
   -77
 72
   -72
 73
    78
  0
VERTEX
  5
11D
330
78
100
AcDbEntity
  8
0
 62
     0
100
AcDbFaceRecord
 10
0.0
 20
0.0
 30
0.0
 70
   128
 71
   -78
 72
   -72
 73
    79
  0
VERTEX
  5
11E
330
78
100
AcDbEntity
  8
0
 62
     0
100
AcDbFaceRecord
 10
0.0
 20
0.0
 30
0.0
 70
   128
 71
   -79
 72
   -72
 73
    80
  0
VERTEX
  5
11F
330
78
100
AcDbEntity
  8
0
 62
     0
100
AcDbFaceRecord
 10
0.0
 20
0.0
 30
0.0
 70
   128
 71
   -80
 72
   -72
 73
    81
  0
VERTEX
  5
120
330
78
100
AcDbEntity
  8
0
 62
     0
100
AcDbFaceRecord
 10
0.0
 20
0.0
 30
0.0
 70
   128
 71
   -81
 72
   -72
 73
    82
  0
VERTEX
  5
121
330
78
100
AcDbEntity
  8
0
 62
     0
100
AcDbFaceRecord
 10
0.0
 20
0.0
 30
0.0
 70
   128
 71
   -82
 72
   -72
 73
    73
  0
VERTEX
  5
122
330
78
100
AcDbEntity
  8
0
 62
     0
100
AcDbFaceRecord
 10
0.0
 20
0.0
 30
0.0
 70
   128
 71
   -76
 72
    75
 73
   -83
  0
VERTEX
  5
123
330
78
100
AcDbEntity
  8
0
 62
     0
100
AcDbFaceRecord
 10
0.0
 20
0.0
 30
0.0
 70
   128
 71
   -76
 72
    83
 73
   -84
  0
VERTEX
  5
124
330
78
100
AcDbEntity
  8
0
 62
     0
100
AcDbFaceRecord
 10
0.0
 20
0.0
 30
0.0
 70
   128
 71
   -76
 72
    84
 73
   -85
  0
VERTEX
  5
125
330
78
100
AcDbEntity
  8
0
 62
     0
100
AcDbFaceRecord
 10
0.0
 20
0.0
 30
0.0
 70
   128
 71
   -76
 72
    85
 73
   -86
  0
VERTEX
  5
126
330
78
100
AcDbEntity
  8
0
 62
     0
100
AcDbFaceRecord
 10
0.0
 20
0.0
 30
0.0
 70
   128
 71
   -76
 72
    86
 73
   -87
  0
VERTEX
  5
127
330
78
100
AcDbEntity
  8
0
 62
     0
100
AcDbFaceRecord
 10
0.0
 20
0.0
 30
0.0
 70
   128
 71
   -76
 72
   -87
 73
    88
  0
VERTEX
  5
128
330
78
100
AcDbEntity
  8
0
 62
     0
100
AcDbFaceRecord
 10
0.0
 20
0.0
 30
0.0
 70
   128
 71
   -88
 72
    87
 73
    89
  0
SEQEND
  5
129
330
78
100
AcDbEntity
  8
0
 62
     0
  0
LINE
  5
12A
330
71
100
AcDbEntity
  8
0
 62
     0
100
AcDbLine
 10
95.48603468643138
 20
6.160832846953072
 30
0.0000000000000873
 11
99.65629669804873
 21
0.0622728380424256
 31
0.0
  0
LINE
  5
12B
330
71
100
AcDbEntity
  8
0
 62
     0
100
AcDbLine
 10
99.65629669804873
 20
0.0622728380424256
 30
0.0
 11
134.1438229257196
 21
0.0
 31
0.0
  0
LINE
  5
12C
330
71
100
AcDbEntity
  8
0
 62
     0
100
AcDbLine
 10
134.1438229257196
 20
0.0
 30
0.0
 11
134.1438229257196
 21
2.591033600000017
 31
-0.0000000000000029
  0
ARC
  5
12D
330
71
100
AcDbEntity
  8
0
 62
     0
100
AcDbCircle
 10
136.5697794488213
 20
3.020214303568356
 30
0.0000000000000105
 40
2.463627635884674
100
AcDbArc
 50
90.0
 51
190.0325024793547
  0
LINE
  5
12E
330
71
100
AcDbEntity
  8
0
 62
     0
100
AcDbLine
 10
136.5697794488213
 20
5.483841939452999
 30
0.0000000000000873
 11
143.5033599488213
 21
5.483841939452999
 31
0.0000000000000873
  0
LINE
  5
12F
330
71
100
AcDbEntity
  8
0
 62
     0
100
AcDbLine
 10
143.5033599488213
 20
5.483841939452999
 30
0.0000000000000873
 11
145.9739819889328
 21
6.472820287462014
 31
-0.0000000000000029
  0
LINE
  5
130
330
71
100
AcDbEntity
  8
0
 62
     0
100
AcDbLine
 10
145.9739819889328
 20
6.472820287462014
 30
-0.0000000000000029
 11
145.9739819889328
 21
9.12416788746193
 31
-0.0000000000000059
  0
LINE
  5
131
330
71
100
AcDbEntity
  8
0
 62
     0
100
AcDbLine
 10
145.9739819889328
 20
9.12416788746193
 30
-0.0000000000000059
 11
143.2947497079596
 21
10.12940268008348
 31
-0.0000000000000059
  0
LINE
  5
132
330
71
100
AcDbEntity
  8
0
 62
     0
100
AcDbLine
 10
143.2947497079596
 20
10.12940268008348
 30
-0.0000000000000059
 11
131.2935244960869
 21
10.77250863867312
 31
-0.0000000000000059
  0
LINE
  5
133
330
71
100
AcDbEntity
  8
0
 62
     0
100
AcDbLine
 10
131.2935244960869
 20
10.77250863867312
 30
-0.0000000000000059
 11
130.1101740481729
 21
9.35573640260452
 31
-0.0000000000000059
  0
LINE
  5
134
330
71
100
AcDbEntity
  8
0
 62
     0
100
AcDbLine
 10
128.6106255743134
 20
10.91627631675826
 30
-0.0000000000000059
 11
130.1101740481729
 21
9.35573640260452
 31
-0.0000000000000059
  0
LINE
  5
135
330
71
100
AcDbEntity
  8
0
 62
     0
100
AcDbLine
 10
128.6106255743134
 20
10.91627631675826
 30
-0.0000000000000059
 11
112.6225938015262
 21
11.77302205043779
 31
-0.0000000000000059
  0
ARC
  5
136
330
71
100
AcDbEntity
  8
0
 62
     0
100
AcDbCircle
 10
115.2654957651811
 20
23.79317400093476
 30
0.0000000000003247
 40
12.30727360963934
100
AcDbArc
 50
225.2665192049138
 51
257.5995446021659
  0
ARC
  5
137
330
71
100
AcDbEntity
  8
0
 62
     0
100
AcDbCircle
 10
-98.8634512987905
 20
7.23782256532699
 30
-0.0000000000184259
 40
10.99737665235635
210
-1.397042650310895E-13
220
-2.291385657220676E-13
230
-1.0
100
AcDbArc
 50
102.4004553978339
 51
134.733480795085
  0
LINE
  5
138
330
71
100
AcDbEntity
  8
0
 62
     0
100
AcDbLine
 10
101.2250619423371
 20
17.97863670588825
 30
0.0000000000001647
 11
6.511550742337135
 21
17.97863670588825
 31
0.0000000000001647
  0
ARC
  5
139
330
71
100
AcDbEntity
  8
0
 62
     0
100
AcDbCircle
 10
6.511550742337135
 20
11.46005735430503
 30
0.0000000000001647
 40
6.518579351582933
100
AcDbArc
 50
90.0
 51
182.6609387762489
  0
LINE
  5
13A
330
71
100
AcDbEntity
  8
0
 62
     0
100
AcDbLine
 10
0.0
 20
11.15742937666294
 30
-0.0000000000000059
 11
24.25888491376742
 21
9.822500225810385
 31
-0.0000000000000059
  0
LINE
  5
13B
330
71
100
AcDbEntity
  8
0
 62
     0
100
AcDbLine
 10
24.25888491376742
 20
9.822500225810385
 30
-0.0000000000000059
 11
24.25888491376742
 21
4.934772325810124
 31
-0.0000000000000029
  0
LINE
  5
13C
330
71
100
AcDbEntity
  8
0
 62
     0
100
AcDbLine
 10
24.25888491376742
 20
4.934772325810124
 30
-0.0000000000000029
 11
13.53387831376758
 21
4.934772325810124
 31
-0.0000000000000029
  0
ARC
  5
13D
330
71
100
AcDbEntity
  8
0
 62
     0
100
AcDbCircle
 10
-13.42104185865243
 20
2.674005704575551
 30
0.0000000000000029
 40
2.257341810937491
210
0.0
220
0.0
230
-1.0
100
AcDbArc
 50
359.575681164572
 51
92.85730171543419
  0
LINE
  5
13E
330
71
100
AcDbEntity
  8
0
 62
     0
100
AcDbLine
 10
11.16376194971793
 20
2.657288523988976
 30
-0.0000000000000029
 11
11.09481222572007
 21
2.591033600000017
 31
-0.0000000000000029
  0
LINE
  5
13F
330
71
100
AcDbEntity
  8
0
 62
     0
100
AcDbLine
 10
11.09481222572007
 20
2.591033600000017
 30
-0.0000000000000029
 11
11.09481222572007
 21
0.0
 31
0.0
  0
LINE
  5
140
330
71
100
AcDbEntity
  8
0
 62
     0
100
AcDbLine
 10
11.09481222572007
 20
0.0
 30
0.0
 11
46.10025152572641
 21
0.0
 31
0.0
  0
LINE
  5
141
330
71
100
AcDbEntity
  8
0
 62
     0
100
AcDbLine
 10
46.10025152572641
 20
0.0
 30
0.0
 11
50.16265381792222
 21
6.160832846953072
 31
0.0000000000000873
  0
LINE
  5
142
330
71
100
AcDbEntity
  8
0
 62
     0
100
AcDbLine
 10
50.16265381792222
 20
6.160832846953072
 30
0.0000000000000873
 11
55.22890690878848
 21
6.160832846953072
 31
0.0000000000000873
  0
LINE
  5
143
330
71
100
AcDbEntity
  8
0
 62
     0
100
AcDbLine
 10
55.22890690878848
 20
6.160832846953072
 30
0.0000000000000873
 11
59.39916892040587
 21
0.0622728380424256
 31
0.0
  0
LINE
  5
144
330
71
100
AcDbEntity
  8
0
 62
     0
100
AcDbLine
 10
59.39916892040587
 20
0.0622728380424256
 30
0.0
 11
59.43575296710237
 21
0.0
 31
0.0
  0
LINE
  5
145
330
71
100
AcDbEntity
  8
0
 62
     0
100
AcDbLine
 10
59.43575296710237
 20
0.0
 30
0.0
 11
66.32952538994341
 21
0.0
 31
0.0
  0
LINE
  5
146
330
71
100
AcDbEntity
  8
0
 62
     0
100
AcDbLine
 10
66.32952538994341
 20
0.0
 30
0.0
 11
70.39192768213935
 21
6.160832846953072
 31
0.0000000000000873
  0
LINE
  5
147
330
71
100
AcDbEntity
  8
0
 62
     0
100
AcDbLine
 10
70.39192768213935
 20
6.160832846953072
 30
0.0000000000000873
 11
75.45818077300584
 21
6.160832846953072
 31
0.0000000000000873
  0
LINE
  5
148
330
71
100
AcDbEntity
  8
0
 62
     0
100
AcDbLine
 10
75.45818077300584
 20
6.160832846953072
 30
0.0000000000000873
 11
79.628442784623
 21
0.0622728380424256
 31
0.0
  0
LINE
  5
149
330
71
100
AcDbEntity
  8
0
 62
     0
100
AcDbLine
 10
79.628442784623
 20
0.0622728380424256
 30
0.0
 11
86.35737930336914
 21
0.0
 31
0.0
  0
LINE
  5
14A
330
71
100
AcDbEntity
  8
0
 62
     0
100
AcDbLine
 10
86.35737930336914
 20
0.0
 30
0.0
 11
90.41978159556507
 21
6.160832846953072
 31
0.0000000000000873
  0
LINE
  5
14B
330
71
100
AcDbEntity
  8
0
 62
     0
100
AcDbLine
 10
90.41978159556507
 20
6.160832846953072
 30
0.0000000000000873
 11
95.48603468643138
 21
6.160832846953072
 31
0.0000000000000873
  0
ENDBLK
  5
73
330
71
100
AcDbEntity
  8
0
100
AcDbBlockEnd
  0
BLOCK
  5
75
330
74
100
AcDbEntity
  8
0
100
AcDbBlockBegin
  2
SUSAN
 70
     0
 10
0.0
 20
0.0
 30
0.0
  3
SUSAN
  1

  0
LINE
  5
14D
330
74
100
AcDbEntity
  8
0
 62
   178
100
AcDbLine
 10
-213.0999295216671
 20
-0.0000000000010377
 30
1083.342513954652
 11
-220.8227083982785
 21
-0.0000000000014889
 31
1126.710776873446
  0
LINE
  5
14E
330
74
100
AcDbEntity
  8
0
 62
   178
100
AcDbLine
 10
218.1231300197507
 20
-0.0000000000009926
 30
1092.398160269694
 11
226.6626137768899
 21
-0.0000000000014889
 31
1108.452758708915
  0
LINE
  5
14F
330
74
100
AcDbEntity
  8
0
 62
   178
100
AcDbLine
 10
-196.6560616095334
 20
0.000000000001128
 30
705.5219566614779
 11
-208.100307381381
 21
0.0000000000012633
 31
737.6225056695127
  0
LINE
  5
150
330
74
100
AcDbEntity
  8
0
 62
   178
100
AcDbLine
 10
-54.15186959445346
 20
-0.0000000000016243
 30
1464.4846267317
 11
-29.18779570232086
 21
-0.0000000000013536
 31
1474.737439563219
  0
LINE
  5
151
330
74
100
AcDbEntity
  8
0
 62
   178
100
AcDbLine
 10
-41.33378509258034
 20
-0.0000000000010829
 30
1443.409476130506
 11
-40.06628025527837
 21
-0.0000000000012182
 31
1433.969187126062
  0
LINE
  5
152
330
74
100
AcDbEntity
  8
0
 62
   178
100
AcDbLine
 10
159.7094174848868
 20
0.0000000000001805
 30
722.1745265125835
 11
166.5942753722545
 21
0.0000000000012182
 31
741.4859129442439
  0
POLYLINE
  5
153
330
74
100
AcDbEntity
  8
0
 62
   178
100
AcDb3dPolyline
 66
     1
 10
0.0
 20
0.0
 30
0.0
 70
     8
  0
VERTEX
  5
154
330
153
100
AcDbEntity
  8
0
 62
   178
100
AcDbVertex
100
AcDb3dPolylineVertex
 10
-164.3516534699497
 20
0.0000000000013085
 30
765.5121183176976
 70
    32
  0
VERTEX
  5
155
330
153
100
AcDbEntity
  8
0
 62
   178
100
AcDbVertex
100
AcDb3dPolylineVertex
 10
-164.3516534699497
 20
0.0000000000013085
 30
736.2932703366431
 70
    32
  0
VERTEX
  5
156
330
153
100
AcDbEntity
  8
0
 62
   178
100
AcDbVertex
100
AcDb3dPolylineVertex
 10
-158.6424447371486
 20
0.0000000000013987
 30
719.5006049850659
 70
    32
  0
VERTEX
  5
157
330
153
100
AcDbEntity
  8
0
 62
   178
100
AcDbVertex
100
AcDb3dPolylineVertex
 10
-155.619610465251
 20
0.000000000000767
 30
714.1270489287098
 70
    32
  0
SEQEND
  5
158
330
153
100
AcDbEntity
  8
0
 62
   178
  0
POLYLINE
  5
159
330
74
100
AcDbEntity
  8
0
 62
   178
100
AcDb3dPolyline
 66
     1
 10
0.0
 20
0.0
 30
0.0
 70
     8
  0
VERTEX
  5
15A
330
159
100
AcDbEntity
  8
0
 62
   178
100
AcDbVertex
100
AcDb3dPolylineVertex
 10
148.7602911196423
 20
-0.0000000000017597
 30
1173.614577473898
 70
    32
  0
VERTEX
  5
15B
330
159
100
AcDbEntity
  8
0
 62
   178
100
AcDbVertex
100
AcDb3dPolylineVertex
 10
155.4004719271765
 20
-0.0000000000017597
 30
1215.944000547839
 70
    32
  0
VERTEX
  5
15C
330
159
100
AcDbEntity
  8
0
 62
   178
100
AcDbVertex
100
AcDb3dPolylineVertex
 10
152.9850640721348
 20
-0.0000000000009024
 30
1253.505391450798
 70
    32
  0
VERTEX
  5
15D
330
159
100
AcDbEntity
  8
0
 62
   178
100
AcDbVertex
100
AcDb3dPolylineVertex
 10
157.8707649330224
 20
-0.0000000000018048
 30
1280.647828096467
 70
    32
  0
SEQEND
  5
15E
330
159
100
AcDbEntity
  8
0
 62
   178
  0
POLYLINE
  5
15F
330
74
100
AcDbEntity
  8
0
 62
   178
100
AcDb3dPolyline
 66
     1
 10
0.0
 20
0.0
 30
0.0
 70
     8
  0
VERTEX
  5
160
330
15F
100
AcDbEntity
  8
0
 62
   178
100
AcDbVertex
100
AcDb3dPolylineVertex
 10
-209.2777945148736
 20
0.0000000000004061
 30
716.2039369978833
 70
    32
  0
VERTEX
  5
161
330
15F
100
AcDbEntity
  8
0
 62
   178
100
AcDbVertex
100
AcDb3dPolylineVertex
 10
-215.1531645643799
 20
0.0000000000012633
 30
736.27897252425
 70
    32
  0
SEQEND
  5
162
330
15F
100
AcDbEntity
  8
0
 62
   178
  0
POLYLINE
  5
163
330
74
100
AcDbEntity
  8
0
 62
   178
100
AcDb3dPolyline
 66
     1
 10
0.0
 20
0.0
 30
0.0
 70
     8
  0
VERTEX
  5
164
330
163
100
AcDbEntity
  8
0
 62
   178
100
AcDbVertex
100
AcDb3dPolylineVertex
 10
194.4524097721904
 20
0.0000000000001805
 30
728.5056900845086
 70
    32
  0
VERTEX
  5
165
330
163
100
AcDbEntity
  8
0
 62
   178
100
AcDbVertex
100
AcDb3dPolylineVertex
 10
194.4524097721904
 20
0.0000000000010829
 30
733.4814441024887
 70
    32
  0
SEQEND
  5
166
330
163
100
AcDbEntity
  8
0
 62
   178
  0
POLYLINE
  5
167
330
74
100
AcDbEntity
  8
0
 62
   178
100
AcDb3dPolyline
 66
     1
 10
0.0
 20
0.0
 30
0.0
 70
     8
  0
VERTEX
  5
168
330
167
100
AcDbEntity
  8
0
 62
   178
100
AcDbVertex
100
AcDb3dPolylineVertex
 10
181.8283638679748
 20
-0.0000000000001354
 30
728.5056900845086
 70
    32
  0
VERTEX
  5
169
330
167
100
AcDbEntity
  8
0
 62
   178
100
AcDbVertex
100
AcDb3dPolylineVertex
 10
182.3792908648863
 20
0.0000000000007219
 30
736.4480095643256
 70
    32
  0
SEQEND
  5
16A
330
167
100
AcDbEntity
  8
0
 62
   178
  0
POLYLINE
  5
16B
330
74
100
AcDbEntity
  8
0
 62
   178
100
AcDb3dPolyline
 66
     1
 10
0.0
 20
0.0
 30
0.0
 70
     8
  0
VERTEX
  5
16C
330
16B
100
AcDbEntity
  8
0
 62
   178
100
AcDbVertex
100
AcDb3dPolylineVertex
 10
-189.292803531667
 20
0.0000000000018048
 30
732.9204855759106
 70
    32
  0
VERTEX
  5
16D
330
16B
100
AcDbEntity
  8
0
 62
   178
100
AcDbVertex
100
AcDb3dPolylineVertex
 10
-179.8887633444549
 20
0.0000000000013536
 30
710.4183808816596
 70
    32
  0
VERTEX
  5
16E
330
16B
100
AcDbEntity
  8
0
 62
   178
100
AcDbVertex
100
AcDb3dPolylineVertex
 10
-175.8587404333661
 20
0.0000000000009024
 30
703.7016375948563
 70
    32
  0
VERTEX
  5
16F
330
16B
100
AcDbEntity
  8
0
 62
   178
100
AcDbVertex
100
AcDb3dPolylineVertex
 10
-156.4721751817011
 20
0.0000000000009024
 30
692.1272125472608
 70
    32
  0
SEQEND
  5
170
330
16B
100
AcDbEntity
  8
0
 62
   178
  0
POLYLINE
  5
171
330
74
100
AcDbEntity
  8
0
 62
   178
100
AcDb3dPolyline
 66
     1
 10
0.0
 20
0.0
 30
0.0
 70
     8
  0
VERTEX
  5
172
330
171
100
AcDbEntity
  8
0
 62
   178
100
AcDbVertex
100
AcDb3dPolylineVertex
 10
-139.3501028924851
 20
-0.0000000000018048
 30
1179.348783778652
 70
    32
  0
VERTEX
  5
173
330
171
100
AcDbEntity
  8
0
 62
   178
100
AcDbVertex
100
AcDb3dPolylineVertex
 10
-140.1385387909249
 20
-0.0000000000019401
 30
1198.67137838909
 70
    32
  0
VERTEX
  5
174
330
171
100
AcDbEntity
  8
0
 62
   178
100
AcDbVertex
100
AcDb3dPolylineVertex
 10
-136.1351513206648
 20
-0.0000000000013536
 30
1253.045728312831
 70
    32
  0
VERTEX
  5
175
330
171
100
AcDbEntity
  8
0
 62
   178
100
AcDbVertex
100
AcDb3dPolylineVertex
 10
-141.8837943424809
 20
-0.0000000000011731
 30
1268.12121486542
 70
    32
  0
VERTEX
  5
176
330
171
100
AcDbEntity
  8
0
 62
   178
100
AcDbVertex
100
AcDb3dPolylineVertex
 10
-145.8807247361813
 20
-0.0000000000013536
 30
1304.89766739845
 70
    32
  0
SEQEND
  5
177
330
171
100
AcDbEntity
  8
0
 62
   178
  0
POLYLINE
  5
178
330
74
100
AcDbEntity
  8
0
 62
     0
100
AcDbPolyFaceMesh
 66
     1
 10
0.0
 20
0.0
 30
0.0
 70
    64
 71
    14
 72
    12
1001
ACAD_MATERIAL_MAPPER
1070
     1
1070
     1
1070
     1
1011
0.0000000000248531
1021
0.0
1031
0.0000000001072312
1011
25.4000000000248
1021
0.0
1031
0.0000000001072312
1011
0.000000000024888
1021
0.0
1031
25.40000000010718
1011
0.0000000000248531
1021
1.0
1031
0.0000000001072312
  0
VERTEX
  5
179
330
178
100
AcDbEntity
  8
0
 62
     0
100
AcDbVertex
100
AcDbPolyFaceMeshVertex
 10
226.7285682018011
 20
-0.0000000000014438
 30
1038.54493101623
 70
   192
  0
VERTEX
  5
17A
330
178
100
AcDbEntity
  8
0
 62
     0
100
AcDbVertex
100
AcDbPolyFaceMeshVertex
 10
217.6771305170175
 20
-0.0000000000016243
 30
1008.903144520173
 70
   192
  0
VERTEX
  5
17B
330
178
100
AcDbEntity
  8
0
 62
     0
100
AcDbVertex
100
AcDbPolyFaceMeshVertex
 10
223.0512630980648
 20
-0.0000000000019401
 30
997.4842658348285
 70
   192
  0
VERTEX
  5
17C
330
178
100
AcDbEntity
  8
0
 62
     0
100
AcDbVertex
100
AcDbPolyFaceMeshVertex
 10
204.2431827236541
 20
-0.0000000000019401
 30
1017.635187524869
 70
   192
  0
VERTEX
  5
17D
330
178
100
AcDbEntity
  8
0
 62
     0
100
AcDbVertex
100
AcDbPolyFaceMeshVertex
 10
187.1148646956485
 20
-0.0000000000021657
 30
1022.001151374746
 70
   192
  0
VERTEX
  5
17E
330
178
100
AcDbEntity
  8
0
 62
     0
100
AcDbVertex
100
AcDbPolyFaceMeshVertex
 10
176.031984601551
 20
-0.0000000000017597
 30
1022.001151374746
 70
   192
  0
VERTEX
  5
17F
330
178
100
AcDbEntity
  8
0
 62
     0
100
AcDbVertex
100
AcDbPolyFaceMeshVertex
 10
150.420451626464
 20
-0.0000000000012633
 30
1038.325621022898
 70
   192
  0
VERTEX
  5
180
330
178
100
AcDbEntity
  8
0
 62
     0
100
AcDbVertex
100
AcDbPolyFaceMeshVertex
 10
161.7108806101378
 20
-0.0000000000023462
 30
1050.462849476092
 70
   192
  0
VERTEX
  5
181
330
178
100
AcDbEntity
  8
0
 62
     0
100
AcDbVertex
100
AcDbPolyFaceMeshVertex
 10
223.1711802342745
 20
-0.0000000000016243
 30
1049.79114055593
 70
   192
  0
VERTEX
  5
182
330
178
100
AcDbEntity
  8
0
 62
     0
100
AcDbVertex
100
AcDbPolyFaceMeshVertex
 10
209.0652352584041
 20
-0.0000000000005414
 30
1055.500810508481
 70
   192
  0
VERTEX
  5
183
330
178
100
AcDbEntity
  8
0
 62
     0
100
AcDbVertex
100
AcDbPolyFaceMeshVertex
 10
175.8163643662564
 20
-0.0000000000019853
 30
1055.164696612287
 70
   192
  0
VERTEX
  5
184
330
178
100
AcDbEntity
  8
0
 62
     0
100
AcDbVertex
100
AcDbPolyFaceMeshVertex
 10
192.2731464315189
 20
-0.0000000000014438
 30
1057.179938677712
 70
   192
  0
VERTEX
  5
185
330
178
100
AcDbEntity
  8
0
 62
     0
100
AcDbVertex
100
AcDbPolyFaceMeshVertex
 10
162.5982674180706
 20
-0.0000000000013987
 30
1015.284062173129
 70
   192
  0
VERTEX
  5
186
330
178
100
AcDbEntity
  8
0
 62
     0
100
AcDbVertex
100
AcDbPolyFaceMeshVertex
 10
152.858689859364
 20
-0.0000000000015792
 30
1005.208716633047
 70
   192
  0
VERTEX
  5
187
330
178
100
AcDbEntity
  8
0
 62
     0
100
AcDbFaceRecord
 10
0.0
 20
0.0
 30
0.0
 70
   128
 71
    -1
 72
     2
 73
     3
  0
VERTEX
  5
188
330
178
100
AcDbEntity
  8
0
 62
     0
100
AcDbFaceRecord
 10
0.0
 20
0.0
 30
0.0
 70
   128
 71
    -2
 72
    -1
 73
     4
  0
VERTEX
  5
189
330
178
100
AcDbEntity
  8
0
 62
     0
100
AcDbFaceRecord
 10
0.0
 20
0.0
 30
0.0
 70
   128
 71
    -4
 72
    -1
 73
     5
  0
VERTEX
  5
18A
330
178
100
AcDbEntity
  8
0
 62
     0
100
AcDbFaceRecord
 10
0.0
 20
0.0
 30
0.0
 70
   128
 71
    -5
 72
    -1
 73
     6
  0
VERTEX
  5
18B
330
178
100
AcDbEntity
  8
0
 62
     0
100
AcDbFaceRecord
 10
0.0
 20
0.0
 30
0.0
 70
   128
 71
    -6
 72
    -1
 73
    -7
  0
VERTEX
  5
18C
330
178
100
AcDbEntity
  8
0
 62
     0
100
AcDbFaceRecord
 10
0.0
 20
0.0
 30
0.0
 70
   128
 71
    -7
 72
    -1
 73
     8
  0
VERTEX
  5
18D
330
178
100
AcDbEntity
  8
0
 62
     0
100
AcDbFaceRecord
 10
0.0
 20
0.0
 30
0.0
 70
   128
 71
    -8
 72
     1
 73
    -9
  0
VERTEX
  5
18E
330
178
100
AcDbEntity
  8
0
 62
     0
100
AcDbFaceRecord
 10
0.0
 20
0.0
 30
0.0
 70
   128
 71
    -8
 72
     9
 73
   -10
  0
VERTEX
  5
18F
330
178
100
AcDbEntity
  8
0
 62
     0
100
AcDbFaceRecord
 10
0.0
 20
0.0
 30
0.0
 70
   128
 71
    -8
 72
   -10
 73
    11
  0
VERTEX
  5
190
330
178
100
AcDbEntity
  8
0
 62
     0
100
AcDbFaceRecord
 10
0.0
 20
0.0
 30
0.0
 70
   128
 71
   -11
 72
    10
 73
    12
  0
VERTEX
  5
191
330
178
100
AcDbEntity
  8
0
 62
     0
100
AcDbFaceRecord
 10
0.0
 20
0.0
 30
0.0
 70
   128
 71
   -13
 72
     7
 73
    14
  0
VERTEX
  5
192
330
178
100
AcDbEntity
  8
0
 62
     0
100
AcDbFaceRecord
 10
0.0
 20
0.0
 30
0.0
 70
   128
 71
    -7
 72
    13
 73
    -6
  0
SEQEND
  5
193
330
178
100
AcDbEntity
  8
0
 62
     0
  0
LINE
  5
194
330
74
100
AcDbEntity
  8
0
 62
   178
100
AcDbLine
 10
152.858689859364
 20
-0.0000000000015792
 30
1005.208716633047
 11
150.420451626464
 21
-0.0000000000012633
 31
1038.325621022898
  0
LINE
  5
195
330
74
100
AcDbEntity
  8
0
 62
   178
100
AcDbLine
 10
226.7285682018011
 20
-0.0000000000014438
 30
1038.54493101623
 11
223.0512630980648
 21
-0.0000000000019401
 31
997.4842658348285
  0
POLYLINE
  5
197
330
74
100
AcDbEntity
  8
0
 62
    43
100
AcDbPolyFaceMesh
 66
     1
 10
0.0
 20
0.0
 30
0.0
 70
    64
 71
    77
 72
    75
1001
ACAD_MATERIAL_MAPPER
1070
     1
1070
     1
1070
     1
1011
0.0000000000035162
1021
0.0
1031
0.0000000000562584
1011
25.40000000000351
1021
0.0
1031
0.0000000000562584
1011
0.0000000000034887
1021
0.0
1031
25.40000000005664
1011
0.0000000000035162
1021
1.0
1031
0.0000000000562584
  0
VERTEX
  5
198
330
197
100
AcDbEntity
  8
0
 62
    43
100
AcDbVertex
100
AcDbPolyFaceMeshVertex
 10
96.89950541253214
 20
0.0000000000001805
 30
1421.85779335584
 70
   192
  0
VERTEX
  5
199
330
197
100
AcDbEntity
  8
0
 62
    43
100
AcDbVertex
100
AcDbPolyFaceMeshVertex
 10
38.06046808684459
 20
-0.0000000000016243
 30
1411.819360492867
 70
   192
  0
VERTEX
  5
19A
330
197
100
AcDbEntity
  8
0
 62
    43
100
AcDbVertex
100
AcDbPolyFaceMeshVertex
 10
94.2351464735398
 20
0.0000000000001805
 30
1410.058489483133
 70
   192
  0
VERTEX
  5
19B
330
197
100
AcDbEntity
  8
0
 62
    43
100
AcDbVertex
100
AcDbPolyFaceMeshVertex
 10
47.20918166803962
 20
-0.0000000000012633
 30
1413.508259387494
 70
   192
  0
VERTEX
  5
19C
330
197
100
AcDbEntity
  8
0
 62
    43
100
AcDbVertex
100
AcDbPolyFaceMeshVertex
 10
62.63099989006221
 20
-0.0000000000014438
 30
1421.676098972691
 70
   192
  0
VERTEX
  5
19D
330
197
100
AcDbEntity
  8
0
 62
    43
100
AcDbVertex
100
AcDbPolyFaceMeshVertex
 10
77.0912604431806
 20
-0.0000000000005414
 30
1431.991463020016
 70
   192
  0
VERTEX
  5
19E
330
197
100
AcDbEntity
  8
0
 62
    43
100
AcDbVertex
100
AcDbPolyFaceMeshVertex
 10
96.89950541253177
 20
-0.0000000000008573
 30
1427.562500304279
 70
   192
  0
VERTEX
  5
19F
330
197
100
AcDbEntity
  8
0
 62
    43
100
AcDbVertex
100
AcDbPolyFaceMeshVertex
 10
96.89950541253177
 20
-0.0000000000008573
 30
1433.912500304279
 70
   192
  0
VERTEX
  5
1A0
330
197
100
AcDbEntity
  8
0
 62
    43
100
AcDbVertex
100
AcDbPolyFaceMeshVertex
 10
86.64232212765909
 20
-0.0000000000016243
 30
1446.077436642696
 70
   192
  0
VERTEX
  5
1A1
330
197
100
AcDbEntity
  8
0
 62
    43
100
AcDbVertex
100
AcDbPolyFaceMeshVertex
 10
93.88368393336559
 20
-0.0000000000014438
 30
1442.396811295074
 70
   192
  0
VERTEX
  5
1A2
330
197
100
AcDbEntity
  8
0
 62
    43
100
AcDbVertex
100
AcDbPolyFaceMeshVertex
 10
87.33927044336245
 20
-0.0000000000019401
 30
1445.962457291773
 70
   192
  0
VERTEX
  5
1A3
330
197
100
AcDbEntity
  8
0
 62
    43
100
AcDbVertex
100
AcDbPolyFaceMeshVertex
 10
34.54353775944018
 20
-0.0000000000012633
 30
1425.915094437438
 70
   192
  0
VERTEX
  5
1A4
330
197
100
AcDbEntity
  8
0
 62
    43
100
AcDbVertex
100
AcDbPolyFaceMeshVertex
 10
21.19550995517009
 20
-0.0000000000018048
 30
1424.851145479131
 70
   192
  0
VERTEX
  5
1A5
330
197
100
AcDbEntity
  8
0
 62
    43
100
AcDbVertex
100
AcDbPolyFaceMeshVertex
 10
36.49646848242124
 20
-0.0000000000014438
 30
1422.987039575583
 70
   192
  0
VERTEX
  5
1A6
330
197
100
AcDbEntity
  8
0
 62
    43
100
AcDbVertex
100
AcDbPolyFaceMeshVertex
 10
27.0442022339653
 20
-0.0000000000016243
 30
1425.334354360078
 70
   192
  0
VERTEX
  5
1A7
330
197
100
AcDbEntity
  8
0
 62
    43
100
AcDbVertex
100
AcDbPolyFaceMeshVertex
 10
32.02789818407383
 20
-0.0000000000009926
 30
1426.714951162784
 70
   192
  0
VERTEX
  5
1A8
330
197
100
AcDbEntity
  8
0
 62
    43
100
AcDbVertex
100
AcDbPolyFaceMeshVertex
 10
49.26624571314751
 20
-0.0000000000009024
 30
1349.576004764247
 70
   192
  0
VERTEX
  5
1A9
330
197
100
AcDbEntity
  8
0
 62
    43
100
AcDbVertex
100
AcDbPolyFaceMeshVertex
 10
-11.95858719189291
 20
-0.0000000000010377
 30
1336.83300322162
 70
   192
  0
VERTEX
  5
1AA
330
197
100
AcDbEntity
  8
0
 62
    43
100
AcDbVertex
100
AcDbPolyFaceMeshVertex
 10
14.15094323300807
 20
-0.0000000000008573
 30
1319.426521604577
 70
   192
  0
VERTEX
  5
1AB
330
197
100
AcDbEntity
  8
0
 62
    43
100
AcDbVertex
100
AcDbPolyFaceMeshVertex
 10
-41.05797899990729
 20
-0.0000000000012633
 30
1367.179544836624
 70
   192
  0
VERTEX
  5
1AC
330
197
100
AcDbEntity
  8
0
 62
    43
100
AcDbVertex
100
AcDbPolyFaceMeshVertex
 10
71.73665829773579
 20
-0.0000000000010829
 30
1375.374667655836
 70
   192
  0
VERTEX
  5
1AD
330
197
100
AcDbEntity
  8
0
 62
    43
100
AcDbVertex
100
AcDbPolyFaceMeshVertex
 10
-64.82467571263301
 20
0.0000000000005414
 30
1397.325273370922
 70
   192
  0
VERTEX
  5
1AE
330
197
100
AcDbEntity
  8
0
 62
    43
100
AcDbVertex
100
AcDbPolyFaceMeshVertex
 10
89.17687787718319
 20
0.000000000000361
 30
1400.33074953345
 70
   192
  0
VERTEX
  5
1AF
330
197
100
AcDbEntity
  8
0
 62
    43
100
AcDbVertex
100
AcDbPolyFaceMeshVertex
 10
-76.89592776956063
 20
0.0000000000025718
 30
1419.510139318377
 70
   192
  0
VERTEX
  5
1B0
330
197
100
AcDbEntity
  8
0
 62
    43
100
AcDbVertex
100
AcDbPolyFaceMeshVertex
 10
37.85358983229396
 20
-0.0000000000012633
 30
1416.659581309671
 70
   192
  0
VERTEX
  5
1B1
330
197
100
AcDbEntity
  8
0
 62
    43
100
AcDbVertex
100
AcDbPolyFaceMeshVertex
 10
-78.38912559258877
 20
-0.0000000000007219
 30
1432.181241804114
 70
   192
  0
VERTEX
  5
1B2
330
197
100
AcDbEntity
  8
0
 62
    43
100
AcDbVertex
100
AcDbPolyFaceMeshVertex
 10
13.44752383728454
 20
-0.0000000000016243
 30
1425.610473720619
 70
   192
  0
VERTEX
  5
1B3
330
197
100
AcDbEntity
  8
0
 62
    43
100
AcDbVertex
100
AcDbPolyFaceMeshVertex
 10
8.940655517604764
 20
-0.0000000000014438
 30
1426.714951162784
 70
   192
  0
VERTEX
  5
1B4
330
197
100
AcDbEntity
  8
0
 62
    43
100
AcDbVertex
100
AcDbPolyFaceMeshVertex
 10
1.500892154248589
 20
-0.0000000000014438
 30
1430.63326812818
 70
   192
  0
VERTEX
  5
1B5
330
197
100
AcDbEntity
  8
0
 62
    43
100
AcDbVertex
100
AcDbPolyFaceMeshVertex
 10
-2.387938799728374
 20
-0.0000000000013987
 30
1436.680142351986
 70
   192
  0
VERTEX
  5
1B6
330
197
100
AcDbEntity
  8
0
 62
    43
100
AcDbVertex
100
AcDbPolyFaceMeshVertex
 10
-41.33378509258034
 20
-0.0000000000010829
 30
1443.409476130506
 70
   192
  0
VERTEX
  5
1B7
330
197
100
AcDbEntity
  8
0
 62
    43
100
AcDbVertex
100
AcDbPolyFaceMeshVertex
 10
-3.177915916389145
 20
-0.0000000000010377
 30
1440.447104238247
 70
   192
  0
VERTEX
  5
1B8
330
197
100
AcDbEntity
  8
0
 62
    43
100
AcDbVertex
100
AcDbPolyFaceMeshVertex
 10
-3.292753482532288
 20
-0.0000000000010377
 30
1444.680584402057
 70
   192
  0
VERTEX
  5
1B9
330
197
100
AcDbEntity
  8
0
 62
    43
100
AcDbVertex
100
AcDbPolyFaceMeshVertex
 10
-47.90410416941562
 20
-0.0000000000012633
 30
1459.588778138891
 70
   192
  0
VERTEX
  5
1BA
330
197
100
AcDbEntity
  8
0
 62
    43
100
AcDbVertex
100
AcDbPolyFaceMeshVertex
 10
-1.780468032380503
 20
-0.0000000000013987
 30
1454.459604846247
 70
   192
  0
VERTEX
  5
1BB
330
197
100
AcDbEntity
  8
0
 62
    43
100
AcDbVertex
100
AcDbPolyFaceMeshVertex
 10
1.973379067785436
 20
-0.0000000000015792
 30
1465.897906508135
 70
   192
  0
VERTEX
  5
1BC
330
197
100
AcDbEntity
  8
0
 62
    43
100
AcDbVertex
100
AcDbPolyFaceMeshVertex
 10
-54.15186959445346
 20
-0.0000000000016243
 30
1464.4846267317
 70
   192
  0
VERTEX
  5
1BD
330
197
100
AcDbEntity
  8
0
 62
    43
100
AcDbVertex
100
AcDbPolyFaceMeshVertex
 10
-69.86701845700728
 20
-0.0000000000016243
 30
1462.237468253139
 70
   192
  0
VERTEX
  5
1BE
330
197
100
AcDbEntity
  8
0
 62
    43
100
AcDbVertex
100
AcDbPolyFaceMeshVertex
 10
-96.93953418787518
 20
-0.0000000000013987
 30
1467.19646702222
 70
   192
  0
VERTEX
  5
1BF
330
197
100
AcDbEntity
  8
0
 62
    43
100
AcDbVertex
100
AcDbPolyFaceMeshVertex
 10
-85.62233139744065
 20
-0.0000000000015341
 30
1461.328234041961
 70
   192
  0
VERTEX
  5
1C0
330
197
100
AcDbEntity
  8
0
 62
    43
100
AcDbVertex
100
AcDbPolyFaceMeshVertex
 10
4.999389534174497
 20
-0.0000000000014438
 30
1471.956430832601
 70
   192
  0
VERTEX
  5
1C1
330
197
100
AcDbEntity
  8
0
 62
    43
100
AcDbVertex
100
AcDbPolyFaceMeshVertex
 10
-101.9693777525805
 20
-0.0000000000015792
 30
1477.675444706639
 70
   192
  0
VERTEX
  5
1C2
330
197
100
AcDbEntity
  8
0
 62
    43
100
AcDbVertex
100
AcDbPolyFaceMeshVertex
 10
19.88236435885457
 20
-0.0000000000014438
 30
1501.754366430409
 70
   192
  0
VERTEX
  5
1C3
330
197
100
AcDbEntity
  8
0
 62
    43
100
AcDbVertex
100
AcDbPolyFaceMeshVertex
 10
-100.8965120530039
 20
-0.0000000000012633
 30
1487.514088889763
 70
   192
  0
VERTEX
  5
1C4
330
197
100
AcDbEntity
  8
0
 62
    43
100
AcDbVertex
100
AcDbPolyFaceMeshVertex
 10
-100.909573271335
 20
-0.0000000000016243
 30
1488.165349275828
 70
   192
  0
VERTEX
  5
1C5
330
197
100
AcDbEntity
  8
0
 62
    43
100
AcDbVertex
100
AcDbPolyFaceMeshVertex
 10
-101.8024392623877
 20
-0.0000000000016243
 30
1494.365158602423
 70
   192
  0
VERTEX
  5
1C6
330
197
100
AcDbEntity
  8
0
 62
    43
100
AcDbVertex
100
AcDbPolyFaceMeshVertex
 10
-104.8283637066466
 20
-0.0000000000015341
 30
1501.922521014029
 70
   192
  0
VERTEX
  5
1C7
330
197
100
AcDbEntity
  8
0
 62
    43
100
AcDbVertex
100
AcDbPolyFaceMeshVertex
 10
22.28188645162238
 20
-0.0000000000016243
 30
1509.910049251033
 70
   192
  0
VERTEX
  5
1C8
330
197
100
AcDbEntity
  8
0
 62
    43
100
AcDbVertex
100
AcDbPolyFaceMeshVertex
 10
-102.8783381145259
 20
-0.0000000000016243
 30
1507.156738258574
 70
   192
  0
VERTEX
  5
1C9
330
197
100
AcDbEntity
  8
0
 62
    43
100
AcDbVertex
100
AcDbPolyFaceMeshVertex
 10
-105.3964365479396
 20
-0.0000000000016243
 30
1510.751392782277
 70
   192
  0
VERTEX
  5
1CA
330
197
100
AcDbEntity
  8
0
 62
    43
100
AcDbVertex
100
AcDbPolyFaceMeshVertex
 10
22.86454679896442
 20
-0.0000000000013987
 30
1522.871576586621
 70
   192
  0
VERTEX
  5
1CB
330
197
100
AcDbEntity
  8
0
 62
    43
100
AcDbVertex
100
AcDbPolyFaceMeshVertex
 10
-107.0266062402176
 20
-0.0000000000013536
 30
1515.483890853793
 70
   192
  0
VERTEX
  5
1CC
330
197
100
AcDbEntity
  8
0
 62
    43
100
AcDbVertex
100
AcDbPolyFaceMeshVertex
 10
-103.8162169550891
 20
-0.0000000000016243
 30
1529.641841239621
 70
   192
  0
VERTEX
  5
1CD
330
197
100
AcDbEntity
  8
0
 62
    43
100
AcDbVertex
100
AcDbPolyFaceMeshVertex
 10
20.86446075597394
 20
-0.0000000000016243
 30
1532.557255897975
 70
   192
  0
VERTEX
  5
1CE
330
197
100
AcDbEntity
  8
0
 62
    43
100
AcDbVertex
100
AcDbPolyFaceMeshVertex
 10
-107.659526579015
 20
-0.0000000000015792
 30
1529.847912784682
 70
   192
  0
VERTEX
  5
1CF
330
197
100
AcDbEntity
  8
0
 62
    43
100
AcDbVertex
100
AcDbPolyFaceMeshVertex
 10
-115.1619000653734
 20
-0.0000000000014438
 30
1532.577231128665
 70
   192
  0
VERTEX
  5
1D0
330
197
100
AcDbEntity
  8
0
 62
    43
100
AcDbVertex
100
AcDbPolyFaceMeshVertex
 10
14.29840592410584
 20
-0.0000000000018048
 30
1549.521451257173
 70
   192
  0
VERTEX
  5
1D1
330
197
100
AcDbEntity
  8
0
 62
    43
100
AcDbVertex
100
AcDbPolyFaceMeshVertex
 10
-119.0908697282274
 20
-0.0000000000015792
 30
1538.37218205516
 70
   192
  0
VERTEX
  5
1D2
330
197
100
AcDbEntity
  8
0
 62
    43
100
AcDbVertex
100
AcDbPolyFaceMeshVertex
 10
-117.2519173835208
 20
-0.0000000000019401
 30
1545.439573425675
 70
   192
  0
VERTEX
  5
1D3
330
197
100
AcDbEntity
  8
0
 62
    43
100
AcDbVertex
100
AcDbPolyFaceMeshVertex
 10
-104.3302396711458
 20
-0.0000000000017145
 30
1570.544584033175
 70
   192
  0
VERTEX
  5
1D4
330
197
100
AcDbEntity
  8
0
 62
    43
100
AcDbVertex
100
AcDbPolyFaceMeshVertex
 10
3.165550771575023
 20
-0.0000000000018048
 30
1568.144852314043
 70
   192
  0
VERTEX
  5
1D5
330
197
100
AcDbEntity
  8
0
 62
    43
100
AcDbVertex
100
AcDbPolyFaceMeshVertex
 10
-9.652343992389964
 20
-0.0000000000013536
 30
1583.373503375238
 70
   192
  0
VERTEX
  5
1D6
330
197
100
AcDbEntity
  8
0
 62
    43
100
AcDbVertex
100
AcDbPolyFaceMeshVertex
 10
-104.8952924582926
 20
-0.0000000000018048
 30
1580.651956263829
 70
   192
  0
VERTEX
  5
1D7
330
197
100
AcDbEntity
  8
0
 62
    43
100
AcDbVertex
100
AcDbPolyFaceMeshVertex
 10
-108.1372686930699
 20
-0.0000000000014438
 30
1589.073349469593
 70
   192
  0
VERTEX
  5
1D8
330
197
100
AcDbEntity
  8
0
 62
    43
100
AcDbVertex
100
AcDbPolyFaceMeshVertex
 10
-23.45557668261855
 20
-0.0000000000021657
 30
1595.791061669807
 70
   192
  0
VERTEX
  5
1D9
330
197
100
AcDbEntity
  8
0
 62
    43
100
AcDbVertex
100
AcDbPolyFaceMeshVertex
 10
-108.2184660038182
 20
-0.0000000000019853
 30
1597.183963806868
 70
   192
  0
VERTEX
  5
1DA
330
197
100
AcDbEntity
  8
0
 62
    43
100
AcDbVertex
100
AcDbPolyFaceMeshVertex
 10
-37.54444561393096
 20
-0.0000000000013987
 30
1605.981184426791
 70
   192
  0
VERTEX
  5
1DB
330
197
100
AcDbEntity
  8
0
 62
    43
100
AcDbVertex
100
AcDbPolyFaceMeshVertex
 10
-106.3498700247301
 20
-0.0000000000018048
 30
1622.872442114349
 70
   192
  0
VERTEX
  5
1DC
330
197
100
AcDbEntity
  8
0
 62
    43
100
AcDbVertex
100
AcDbPolyFaceMeshVertex
 10
-51.21924910114544
 20
-0.0000000000015792
 30
1614.527528875225
 70
   192
  0
VERTEX
  5
1DD
330
197
100
AcDbEntity
  8
0
 62
    43
100
AcDbVertex
100
AcDbPolyFaceMeshVertex
 10
-63.78028545909378
 20
-0.0000000000017597
 30
1622.013752244156
 70
   192
  0
VERTEX
  5
1DE
330
197
100
AcDbEntity
  8
0
 62
    43
100
AcDbVertex
100
AcDbPolyFaceMeshVertex
 10
-74.52785300258934
 20
-0.0000000000017597
 30
1629.023511762623
 70
   192
  0
VERTEX
  5
1DF
330
197
100
AcDbEntity
  8
0
 62
    43
100
AcDbVertex
100
AcDbPolyFaceMeshVertex
 10
-105.1383610342334
 20
-0.0000000000019853
 30
1629.22998889755
 70
   192
  0
VERTEX
  5
1E0
330
197
100
AcDbEntity
  8
0
 62
    43
100
AcDbVertex
100
AcDbPolyFaceMeshVertex
 10
-86.67027073161236
 20
-0.0000000000021657
 30
1638.973267096295
 70
   192
  0
VERTEX
  5
1E1
330
197
100
AcDbEntity
  8
0
 62
    43
100
AcDbVertex
100
AcDbPolyFaceMeshVertex
 10
-101.9870826123833
 20
-0.0000000000021657
 30
1633.611726676568
 70
   192
  0
VERTEX
  5
1E2
330
197
100
AcDbEntity
  8
0
 62
    43
100
AcDbVertex
100
AcDbPolyFaceMeshVertex
 10
-97.00059122136616
 20
-0.0000000000016243
 30
1638.055272414462
 70
   192
  0
VERTEX
  5
1E3
330
197
100
AcDbEntity
  8
0
 62
    43
100
AcDbVertex
100
AcDbPolyFaceMeshVertex
 10
-93.86333508214038
 20
-0.0000000000019853
 30
1639.529125736052
 70
   192
  0
VERTEX
  5
1E4
330
197
100
AcDbEntity
  8
0
 62
    43
100
AcDbVertex
100
AcDbPolyFaceMeshVertex
 10
-90.39526366452917
 20
-0.0000000000016243
 30
1639.968972375877
 70
   192
  0
VERTEX
  5
1E5
330
197
100
AcDbEntity
  8
0
 62
    43
100
AcDbFaceRecord
 10
0.0
 20
0.0
 30
0.0
 70
   128
 71
    -1
 72
    -2
 73
     3
  0
VERTEX
  5
1E6
330
197
100
AcDbEntity
  8
0
 62
    43
100
AcDbFaceRecord
 10
0.0
 20
0.0
 30
0.0
 70
   128
 71
    -2
 72
    -1
 73
     4
  0
VERTEX
  5
1E7
330
197
100
AcDbEntity
  8
0
 62
    43
100
AcDbFaceRecord
 10
0.0
 20
0.0
 30
0.0
 70
   128
 71
    -4
 72
    -1
 73
     5
  0
VERTEX
  5
1E8
330
197
100
AcDbEntity
  8
0
 62
    43
100
AcDbFaceRecord
 10
0.0
 20
0.0
 30
0.0
 70
   128
 71
    -5
 72
    -1
 73
     6
  0
VERTEX
  5
1E9
330
197
100
AcDbEntity
  8
0
 62
    43
100
AcDbFaceRecord
 10
0.0
 20
0.0
 30
0.0
 70
   128
 71
    -6
 72
     1
 73
    -7
  0
VERTEX
  5
1EA
330
197
100
AcDbEntity
  8
0
 62
    43
100
AcDbFaceRecord
 10
0.0
 20
0.0
 30
0.0
 70
   128
 71
    -6
 72
     7
 73
    -8
  0
VERTEX
  5
1EB
330
197
100
AcDbEntity
  8
0
 62
    43
100
AcDbFaceRecord
 10
0.0
 20
0.0
 30
0.0
 70
   128
 71
    -6
 72
    -8
 73
     9
  0
VERTEX
  5
1EC
330
197
100
AcDbEntity
  8
0
 62
    43
100
AcDbFaceRecord
 10
0.0
 20
0.0
 30
0.0
 70
   128
 71
    -9
 72
     8
 73
   -10
  0
VERTEX
  5
1ED
330
197
100
AcDbEntity
  8
0
 62
    43
100
AcDbFaceRecord
 10
0.0
 20
0.0
 30
0.0
 70
   128
 71
    -9
 72
    10
 73
    11
  0
VERTEX
  5
1EE
330
197
100
AcDbEntity
  8
0
 62
    43
100
AcDbFaceRecord
 10
0.0
 20
0.0
 30
0.0
 70
   128
 71
   -12
 72
   -13
 73
    14
  0
VERTEX
  5
1EF
330
197
100
AcDbEntity
  8
0
 62
    43
100
AcDbFaceRecord
 10
0.0
 20
0.0
 30
0.0
 70
   128
 71
   -13
 72
   -12
 73
    15
  0
VERTEX
  5
1F0
330
197
100
AcDbEntity
  8
0
 62
    43
100
AcDbFaceRecord
 10
0.0
 20
0.0
 30
0.0
 70
   128
 71
   -15
 72
    12
 73
    16
  0
VERTEX
  5
1F1
330
197
100
AcDbEntity
  8
0
 62
    43
100
AcDbFaceRecord
 10
0.0
 20
0.0
 30
0.0
 70
   128
 71
   -17
 72
    18
 73
    19
  0
VERTEX
  5
1F2
330
197
100
AcDbEntity
  8
0
 62
    43
100
AcDbFaceRecord
 10
0.0
 20
0.0
 30
0.0
 70
   128
 71
   -18
 72
   -17
 73
    20
  0
VERTEX
  5
1F3
330
197
100
AcDbEntity
  8
0
 62
    43
100
AcDbFaceRecord
 10
0.0
 20
0.0
 30
0.0
 70
   128
 71
   -20
 72
    17
 73
   -21
  0
VERTEX
  5
1F4
330
197
100
AcDbEntity
  8
0
 62
    43
100
AcDbFaceRecord
 10
0.0
 20
0.0
 30
0.0
 70
   128
 71
   -20
 72
   -21
 73
    22
  0
VERTEX
  5
1F5
330
197
100
AcDbEntity
  8
0
 62
    43
100
AcDbFaceRecord
 10
0.0
 20
0.0
 30
0.0
 70
   128
 71
   -22
 72
    21
 73
   -23
  0
VERTEX
  5
1F6
330
197
100
AcDbEntity
  8
0
 62
    43
100
AcDbFaceRecord
 10
0.0
 20
0.0
 30
0.0
 70
   128
 71
   -22
 72
   -23
 73
    24
  0
VERTEX
  5
1F7
330
197
100
AcDbEntity
  8
0
 62
    43
100
AcDbFaceRecord
 10
0.0
 20
0.0
 30
0.0
 70
   128
 71
   -24
 72
   -23
 73
    -2
  0
VERTEX
  5
1F8
330
197
100
AcDbEntity
  8
0
 62
    43
100
AcDbFaceRecord
 10
0.0
 20
0.0
 30
0.0
 70
   128
 71
    -2
 72
    23
 73
    -3
  0
VERTEX
  5
1F9
330
197
100
AcDbEntity
  8
0
 62
    43
100
AcDbFaceRecord
 10
0.0
 20
0.0
 30
0.0
 70
   128
 71
   -24
 72
     2
 73
   -25
  0
VERTEX
  5
1FA
330
197
100
AcDbEntity
  8
0
 62
    43
100
AcDbFaceRecord
 10
0.0
 20
0.0
 30
0.0
 70
   128
 71
   -24
 72
    25
 73
   -14
  0
VERTEX
  5
1FB
330
197
100
AcDbEntity
  8
0
 62
    43
100
AcDbFaceRecord
 10
0.0
 20
0.0
 30
0.0
 70
   128
 71
   -24
 72
   -14
 73
    26
  0
VERTEX
  5
1FC
330
197
100
AcDbEntity
  8
0
 62
    43
100
AcDbFaceRecord
 10
0.0
 20
0.0
 30
0.0
 70
   128
 71
   -26
 72
   -14
 73
   -13
  0
VERTEX
  5
1FD
330
197
100
AcDbEntity
  8
0
 62
    43
100
AcDbFaceRecord
 10
0.0
 20
0.0
 30
0.0
 70
   128
 71
   -26
 72
    13
 73
   -27
  0
VERTEX
  5
1FE
330
197
100
AcDbEntity
  8
0
 62
    43
100
AcDbFaceRecord
 10
0.0
 20
0.0
 30
0.0
 70
   128
 71
   -26
 72
    27
 73
   -28
  0
VERTEX
  5
1FF
330
197
100
AcDbEntity
  8
0
 62
    43
100
AcDbFaceRecord
 10
0.0
 20
0.0
 30
0.0
 70
   128
 71
   -26
 72
    28
 73
   -29
  0
VERTEX
  5
200
330
197
100
AcDbEntity
  8
0
 62
    43
100
AcDbFaceRecord
 10
0.0
 20
0.0
 30
0.0
 70
   128
 71
   -26
 72
    29
 73
   -30
  0
VERTEX
  5
201
330
197
100
AcDbEntity
  8
0
 62
    43
100
AcDbFaceRecord
 10
0.0
 20
0.0
 30
0.0
 70
   128
 71
   -26
 72
   -30
 73
    31
  0
VERTEX
  5
202
330
197
100
AcDbEntity
  8
0
 62
    43
100
AcDbFaceRecord
 10
0.0
 20
0.0
 30
0.0
 70
   128
 71
   -31
 72
    30
 73
   -32
  0
VERTEX
  5
203
330
197
100
AcDbEntity
  8
0
 62
    43
100
AcDbFaceRecord
 10
0.0
 20
0.0
 30
0.0
 70
   128
 71
   -31
 72
    32
 73
   -33
  0
VERTEX
  5
204
330
197
100
AcDbEntity
  8
0
 62
    43
100
AcDbFaceRecord
 10
0.0
 20
0.0
 30
0.0
 70
   128
 71
   -31
 72
   -33
 73
    34
  0
VERTEX
  5
205
330
197
100
AcDbEntity
  8
0
 62
    43
100
AcDbFaceRecord
 10
0.0
 20
0.0
 30
0.0
 70
   128
 71
   -34
 72
    33
 73
   -35
  0
VERTEX
  5
206
330
197
100
AcDbEntity
  8
0
 62
    43
100
AcDbFaceRecord
 10
0.0
 20
0.0
 30
0.0
 70
   128
 71
   -34
 72
    35
 73
   -36
  0
VERTEX
  5
207
330
197
100
AcDbEntity
  8
0
 62
    43
100
AcDbFaceRecord
 10
0.0
 20
0.0
 30
0.0
 70
   128
 71
   -34
 72
   -36
 73
    37
  0
VERTEX
  5
208
330
197
100
AcDbEntity
  8
0
 62
    43
100
AcDbFaceRecord
 10
0.0
 20
0.0
 30
0.0
 70
   128
 71
   -38
 72
    39
 73
    40
  0
VERTEX
  5
209
330
197
100
AcDbEntity
  8
0
 62
    43
100
AcDbFaceRecord
 10
0.0
 20
0.0
 30
0.0
 70
   128
 71
   -39
 72
    38
 73
   -37
  0
VERTEX
  5
20A
330
197
100
AcDbEntity
  8
0
 62
    43
100
AcDbFaceRecord
 10
0.0
 20
0.0
 30
0.0
 70
   128
 71
   -39
 72
   -37
 73
   -36
  0
VERTEX
  5
20B
330
197
100
AcDbEntity
  8
0
 62
    43
100
AcDbFaceRecord
 10
0.0
 20
0.0
 30
0.0
 70
   128
 71
   -39
 72
    36
 73
   -41
  0
VERTEX
  5
20C
330
197
100
AcDbEntity
  8
0
 62
    43
100
AcDbFaceRecord
 10
0.0
 20
0.0
 30
0.0
 70
   128
 71
   -39
 72
   -41
 73
    42
  0
VERTEX
  5
20D
330
197
100
AcDbEntity
  8
0
 62
    43
100
AcDbFaceRecord
 10
0.0
 20
0.0
 30
0.0
 70
   128
 71
   -42
 72
    41
 73
   -43
  0
VERTEX
  5
20E
330
197
100
AcDbEntity
  8
0
 62
    43
100
AcDbFaceRecord
 10
0.0
 20
0.0
 30
0.0
 70
   128
 71
   -42
 72
   -43
 73
    44
  0
VERTEX
  5
20F
330
197
100
AcDbEntity
  8
0
 62
    43
100
AcDbFaceRecord
 10
0.0
 20
0.0
 30
0.0
 70
   128
 71
   -44
 72
   -43
 73
    45
  0
VERTEX
  5
210
330
197
100
AcDbEntity
  8
0
 62
    43
100
AcDbFaceRecord
 10
0.0
 20
0.0
 30
0.0
 70
   128
 71
   -45
 72
   -43
 73
    46
  0
VERTEX
  5
211
330
197
100
AcDbEntity
  8
0
 62
    43
100
AcDbFaceRecord
 10
0.0
 20
0.0
 30
0.0
 70
   128
 71
   -46
 72
   -43
 73
    47
  0
VERTEX
  5
212
330
197
100
AcDbEntity
  8
0
 62
    43
100
AcDbFaceRecord
 10
0.0
 20
0.0
 30
0.0
 70
   128
 71
   -47
 72
    43
 73
   -48
  0
VERTEX
  5
213
330
197
100
AcDbEntity
  8
0
 62
    43
100
AcDbFaceRecord
 10
0.0
 20
0.0
 30
0.0
 70
   128
 71
   -47
 72
   -48
 73
    49
  0
VERTEX
  5
214
330
197
100
AcDbEntity
  8
0
 62
    43
100
AcDbFaceRecord
 10
0.0
 20
0.0
 30
0.0
 70
   128
 71
   -49
 72
   -48
 73
    50
  0
VERTEX
  5
215
330
197
100
AcDbEntity
  8
0
 62
    43
100
AcDbFaceRecord
 10
0.0
 20
0.0
 30
0.0
 70
   128
 71
   -50
 72
    48
 73
   -51
  0
VERTEX
  5
216
330
197
100
AcDbEntity
  8
0
 62
    43
100
AcDbFaceRecord
 10
0.0
 20
0.0
 30
0.0
 70
   128
 71
   -50
 72
   -51
 73
    52
  0
VERTEX
  5
217
330
197
100
AcDbEntity
  8
0
 62
    43
100
AcDbFaceRecord
 10
0.0
 20
0.0
 30
0.0
 70
   128
 71
   -52
 72
   -51
 73
    53
  0
VERTEX
  5
218
330
197
100
AcDbEntity
  8
0
 62
    43
100
AcDbFaceRecord
 10
0.0
 20
0.0
 30
0.0
 70
   128
 71
   -53
 72
    51
 73
   -54
  0
VERTEX
  5
219
330
197
100
AcDbEntity
  8
0
 62
    43
100
AcDbFaceRecord
 10
0.0
 20
0.0
 30
0.0
 70
   128
 71
   -53
 72
   -54
 73
    55
  0
VERTEX
  5
21A
330
197
100
AcDbEntity
  8
0
 62
    43
100
AcDbFaceRecord
 10
0.0
 20
0.0
 30
0.0
 70
   128
 71
   -55
 72
   -54
 73
    56
  0
VERTEX
  5
21B
330
197
100
AcDbEntity
  8
0
 62
    43
100
AcDbFaceRecord
 10
0.0
 20
0.0
 30
0.0
 70
   128
 71
   -56
 72
    54
 73
   -57
  0
VERTEX
  5
21C
330
197
100
AcDbEntity
  8
0
 62
    43
100
AcDbFaceRecord
 10
0.0
 20
0.0
 30
0.0
 70
   128
 71
   -56
 72
   -57
 73
    58
  0
VERTEX
  5
21D
330
197
100
AcDbEntity
  8
0
 62
    43
100
AcDbFaceRecord
 10
0.0
 20
0.0
 30
0.0
 70
   128
 71
   -58
 72
   -57
 73
    59
  0
VERTEX
  5
21E
330
197
100
AcDbEntity
  8
0
 62
    43
100
AcDbFaceRecord
 10
0.0
 20
0.0
 30
0.0
 70
   128
 71
   -59
 72
   -57
 73
    60
  0
VERTEX
  5
21F
330
197
100
AcDbEntity
  8
0
 62
    43
100
AcDbFaceRecord
 10
0.0
 20
0.0
 30
0.0
 70
   128
 71
   -60
 72
    57
 73
   -61
  0
VERTEX
  5
220
330
197
100
AcDbEntity
  8
0
 62
    43
100
AcDbFaceRecord
 10
0.0
 20
0.0
 30
0.0
 70
   128
 71
   -60
 72
    61
 73
   -62
  0
VERTEX
  5
221
330
197
100
AcDbEntity
  8
0
 62
    43
100
AcDbFaceRecord
 10
0.0
 20
0.0
 30
0.0
 70
   128
 71
   -60
 72
   -62
 73
    63
  0
VERTEX
  5
222
330
197
100
AcDbEntity
  8
0
 62
    43
100
AcDbFaceRecord
 10
0.0
 20
0.0
 30
0.0
 70
   128
 71
   -63
 72
   -62
 73
    64
  0
VERTEX
  5
223
330
197
100
AcDbEntity
  8
0
 62
    43
100
AcDbFaceRecord
 10
0.0
 20
0.0
 30
0.0
 70
   128
 71
   -64
 72
    62
 73
   -65
  0
VERTEX
  5
224
330
197
100
AcDbEntity
  8
0
 62
    43
100
AcDbFaceRecord
 10
0.0
 20
0.0
 30
0.0
 70
   128
 71
   -64
 72
   -65
 73
    66
  0
VERTEX
  5
225
330
197
100
AcDbEntity
  8
0
 62
    43
100
AcDbFaceRecord
 10
0.0
 20
0.0
 30
0.0
 70
   128
 71
   -66
 72
    65
 73
   -67
  0
VERTEX
  5
226
330
197
100
AcDbEntity
  8
0
 62
    43
100
AcDbFaceRecord
 10
0.0
 20
0.0
 30
0.0
 70
   128
 71
   -66
 72
   -67
 73
    68
  0
VERTEX
  5
227
330
197
100
AcDbEntity
  8
0
 62
    43
100
AcDbFaceRecord
 10
0.0
 20
0.0
 30
0.0
 70
   128
 71
   -68
 72
    67
 73
   -69
  0
VERTEX
  5
228
330
197
100
AcDbEntity
  8
0
 62
    43
100
AcDbFaceRecord
 10
0.0
 20
0.0
 30
0.0
 70
   128
 71
   -68
 72
    69
 73
   -70
  0
VERTEX
  5
229
330
197
100
AcDbEntity
  8
0
 62
    43
100
AcDbFaceRecord
 10
0.0
 20
0.0
 30
0.0
 70
   128
 71
   -68
 72
    70
 73
   -71
  0
VERTEX
  5
22A
330
197
100
AcDbEntity
  8
0
 62
    43
100
AcDbFaceRecord
 10
0.0
 20
0.0
 30
0.0
 70
   128
 71
   -68
 72
   -71
 73
    72
  0
VERTEX
  5
22B
330
197
100
AcDbEntity
  8
0
 62
    43
100
AcDbFaceRecord
 10
0.0
 20
0.0
 30
0.0
 70
   128
 71
   -72
 72
    71
 73
   -73
  0
VERTEX
  5
22C
330
197
100
AcDbEntity
  8
0
 62
    43
100
AcDbFaceRecord
 10
0.0
 20
0.0
 30
0.0
 70
   128
 71
   -72
 72
   -73
 73
    74
  0
VERTEX
  5
22D
330
197
100
AcDbEntity
  8
0
 62
    43
100
AcDbFaceRecord
 10
0.0
 20
0.0
 30
0.0
 70
   128
 71
   -74
 72
   -73
 73
    75
  0
VERTEX
  5
22E
330
197
100
AcDbEntity
  8
0
 62
    43
100
AcDbFaceRecord
 10
0.0
 20
0.0
 30
0.0
 70
   128
 71
   -75
 72
   -73
 73
    76
  0
VERTEX
  5
22F
330
197
100
AcDbEntity
  8
0
 62
    43
100
AcDbFaceRecord
 10
0.0
 20
0.0
 30
0.0
 70
   128
 71
   -76
 72
    73
 73
    77
  0
SEQEND
  5
230
330
197
100
AcDbEntity
  8
0
 62
    43
  0
LINE
  5
231
330
74
100
AcDbEntity
  8
0
 62
   178
100
AcDbLine
 10
87.33927044336245
 20
-0.0000000000019401
 30
1445.962457291773
 11
93.88368393336559
 21
-0.0000000000014438
 31
1442.396811295074
  0
LINE
  5
232
330
74
100
AcDbEntity
  8
0
 62
   178
100
AcDbLine
 10
86.64232212765909
 20
-0.0000000000016243
 30
1446.077436642696
 11
87.33927044336245
 21
-0.0000000000019401
 31
1445.962457291773
  0
LINE
  5
233
330
74
100
AcDbEntity
  8
0
 62
   178
100
AcDbLine
 10
-78.38912559258877
 20
-0.0000000000007219
 30
1432.181241804114
 11
-41.33378509258034
 21
-0.0000000000010829
 31
1443.409476130506
  0
POLYLINE
  5
235
330
74
100
AcDbEntity
  8
0
 62
   250
100
AcDbPolyFaceMesh
 66
     1
 10
0.0
 20
0.0
 30
0.0
 70
    64
 71
    61
 72
    59
1001
ACAD_MATERIAL_MAPPER
1070
     1
1070
     1
1070
     1
1011
-0.0000000007836896
1021
0.0
1031
-0.0000000089564522
1011
25.39999999921615
1021
0.0
1031
-0.0000000089576184
1011
-0.0000000007836896
1021
0.0
1031
25.39999999104062
1011
-0.0000000007836896
1021
1.0
1031
-0.0000000089564522
  0
VERTEX
  5
236
330
235
100
AcDbEntity
  8
0
 62
   250
100
AcDbVertex
100
AcDbPolyFaceMeshVertex
 10
124.9995085488002
 20
-0.0000000000012633
 30
1427.071545129038
 70
   192
  0
VERTEX
  5
237
330
235
100
AcDbEntity
  8
0
 62
   250
100
AcDbVertex
100
AcDbPolyFaceMeshVertex
 10
116.537332192443
 20
-0.0000000000010829
 30
1429.172747995902
 70
   192
  0
VERTEX
  5
238
330
235
100
AcDbEntity
  8
0
 62
   250
100
AcDbVertex
100
AcDbPolyFaceMeshVertex
 10
123.6302463111275
 20
-0.0000000000012633
 30
1426.482507936939
 70
   192
  0
VERTEX
  5
239
330
235
100
AcDbEntity
  8
0
 62
   250
100
AcDbVertex
100
AcDbPolyFaceMeshVertex
 10
130.1973699095279
 20
-0.0000000000015792
 30
1429.307591356418
 70
   192
  0
VERTEX
  5
23A
330
235
100
AcDbEntity
  8
0
 62
   250
100
AcDbVertex
100
AcDbPolyFaceMeshVertex
 10
107.1257106377965
 20
-0.0000000000004963
 30
1435.182050250565
 70
   192
  0
VERTEX
  5
23B
330
235
100
AcDbEntity
  8
0
 62
   250
100
AcDbVertex
100
AcDbPolyFaceMeshVertex
 10
135.4850699085553
 20
-0.0000000000018048
 30
1447.985094653043
 70
   192
  0
VERTEX
  5
23C
330
235
100
AcDbEntity
  8
0
 62
   250
100
AcDbVertex
100
AcDbPolyFaceMeshVertex
 10
93.88368393336559
 20
-0.0000000000014438
 30
1442.396811295074
 70
   192
  0
VERTEX
  5
23D
330
235
100
AcDbEntity
  8
0
 62
   250
100
AcDbVertex
100
AcDbPolyFaceMeshVertex
 10
87.33927044336245
 20
-0.0000000000019401
 30
1445.962457291773
 70
   192
  0
VERTEX
  5
23E
330
235
100
AcDbEntity
  8
0
 62
   250
100
AcDbVertex
100
AcDbPolyFaceMeshVertex
 10
86.64232212765909
 20
-0.0000000000016243
 30
1446.077436642696
 70
   192
  0
VERTEX
  5
23F
330
235
100
AcDbEntity
  8
0
 62
   250
100
AcDbVertex
100
AcDbPolyFaceMeshVertex
 10
47.20918166803962
 20
-0.0000000000012633
 30
1413.508259387494
 70
   192
  0
VERTEX
  5
240
330
235
100
AcDbEntity
  8
0
 62
   250
100
AcDbVertex
100
AcDbPolyFaceMeshVertex
 10
37.85358983229396
 20
-0.0000000000012633
 30
1416.659581309671
 70
   192
  0
VERTEX
  5
241
330
235
100
AcDbEntity
  8
0
 62
   250
100
AcDbVertex
100
AcDbPolyFaceMeshVertex
 10
38.06046808684459
 20
-0.0000000000016243
 30
1411.819360492867
 70
   192
  0
VERTEX
  5
242
330
235
100
AcDbEntity
  8
0
 62
   250
100
AcDbVertex
100
AcDbPolyFaceMeshVertex
 10
62.63099989006221
 20
-0.0000000000014438
 30
1421.676098972691
 70
   192
  0
VERTEX
  5
243
330
235
100
AcDbEntity
  8
0
 62
   250
100
AcDbVertex
100
AcDbPolyFaceMeshVertex
 10
36.49646848242124
 20
-0.0000000000014438
 30
1422.987039575583
 70
   192
  0
VERTEX
  5
244
330
235
100
AcDbEntity
  8
0
 62
   250
100
AcDbVertex
100
AcDbPolyFaceMeshVertex
 10
77.0912604431806
 20
-0.0000000000005414
 30
1431.991463020016
 70
   192
  0
VERTEX
  5
245
330
235
100
AcDbEntity
  8
0
 62
   250
100
AcDbVertex
100
AcDbPolyFaceMeshVertex
 10
34.54353775944018
 20
-0.0000000000012633
 30
1425.915094437438
 70
   192
  0
VERTEX
  5
246
330
235
100
AcDbEntity
  8
0
 62
   250
100
AcDbVertex
100
AcDbPolyFaceMeshVertex
 10
32.02789818407383
 20
-0.0000000000009926
 30
1426.714951162784
 70
   192
  0
VERTEX
  5
247
330
235
100
AcDbEntity
  8
0
 62
   250
100
AcDbVertex
100
AcDbPolyFaceMeshVertex
 10
8.940655517604764
 20
-0.0000000000014438
 30
1426.714951162784
 70
   192
  0
VERTEX
  5
248
330
235
100
AcDbEntity
  8
0
 62
   250
100
AcDbVertex
100
AcDbPolyFaceMeshVertex
 10
1.500892154248589
 20
-0.0000000000014438
 30
1430.63326812818
 70
   192
  0
VERTEX
  5
249
330
235
100
AcDbEntity
  8
0
 62
   250
100
AcDbVertex
100
AcDbPolyFaceMeshVertex
 10
-2.387938799728374
 20
-0.0000000000013987
 30
1436.680142351986
 70
   192
  0
VERTEX
  5
24A
330
235
100
AcDbEntity
  8
0
 62
   250
100
AcDbVertex
100
AcDbPolyFaceMeshVertex
 10
-3.177915916389145
 20
-0.0000000000010377
 30
1440.447104238247
 70
   192
  0
VERTEX
  5
24B
330
235
100
AcDbEntity
  8
0
 62
   250
100
AcDbVertex
100
AcDbPolyFaceMeshVertex
 10
-3.292753482532288
 20
-0.0000000000010377
 30
1444.680584402057
 70
   192
  0
VERTEX
  5
24C
330
235
100
AcDbEntity
  8
0
 62
   250
100
AcDbVertex
100
AcDbPolyFaceMeshVertex
 10
-1.780468032380503
 20
-0.0000000000013987
 30
1454.459604846247
 70
   192
  0
VERTEX
  5
24D
330
235
100
AcDbEntity
  8
0
 62
   250
100
AcDbVertex
100
AcDbPolyFaceMeshVertex
 10
139.6212886681575
 20
-0.0000000000016694
 30
1484.52778227737
 70
   192
  0
VERTEX
  5
24E
330
235
100
AcDbEntity
  8
0
 62
   250
100
AcDbVertex
100
AcDbPolyFaceMeshVertex
 10
1.973379067785436
 20
-0.0000000000015792
 30
1465.897906508135
 70
   192
  0
VERTEX
  5
24F
330
235
100
AcDbEntity
  8
0
 62
   250
100
AcDbVertex
100
AcDbPolyFaceMeshVertex
 10
4.999389534174497
 20
-0.0000000000014438
 30
1471.956430832601
 70
   192
  0
VERTEX
  5
250
330
235
100
AcDbEntity
  8
0
 62
   250
100
AcDbVertex
100
AcDbPolyFaceMeshVertex
 10
19.88236435885457
 20
-0.0000000000014438
 30
1501.754366430409
 70
   192
  0
VERTEX
  5
251
330
235
100
AcDbEntity
  8
0
 62
   250
100
AcDbVertex
100
AcDbPolyFaceMeshVertex
 10
126.8756882976089
 20
-0.0000000000019853
 30
1536.371083581774
 70
   192
  0
VERTEX
  5
252
330
235
100
AcDbEntity
  8
0
 62
   250
100
AcDbVertex
100
AcDbPolyFaceMeshVertex
 10
22.28188645162238
 20
-0.0000000000016243
 30
1509.910049251033
 70
   192
  0
VERTEX
  5
253
330
235
100
AcDbEntity
  8
0
 62
   250
100
AcDbVertex
100
AcDbPolyFaceMeshVertex
 10
22.86454679896442
 20
-0.0000000000013987
 30
1522.871576586621
 70
   192
  0
VERTEX
  5
254
330
235
100
AcDbEntity
  8
0
 62
   250
100
AcDbVertex
100
AcDbPolyFaceMeshVertex
 10
20.86446075597394
 20
-0.0000000000016243
 30
1532.557255897975
 70
   192
  0
VERTEX
  5
255
330
235
100
AcDbEntity
  8
0
 62
   250
100
AcDbVertex
100
AcDbPolyFaceMeshVertex
 10
14.29840592410584
 20
-0.0000000000018048
 30
1549.521451257173
 70
   192
  0
VERTEX
  5
256
330
235
100
AcDbEntity
  8
0
 62
   250
100
AcDbVertex
100
AcDbPolyFaceMeshVertex
 10
96.79521263192328
 20
-0.0000000000016243
 30
1601.261849262202
 70
   192
  0
VERTEX
  5
257
330
235
100
AcDbEntity
  8
0
 62
   250
100
AcDbVertex
100
AcDbPolyFaceMeshVertex
 10
3.165550771575023
 20
-0.0000000000018048
 30
1568.144852314043
 70
   192
  0
VERTEX
  5
258
330
235
100
AcDbEntity
  8
0
 62
   250
100
AcDbVertex
100
AcDbPolyFaceMeshVertex
 10
-9.652343992389964
 20
-0.0000000000013536
 30
1583.373503375238
 70
   192
  0
VERTEX
  5
259
330
235
100
AcDbEntity
  8
0
 62
   250
100
AcDbVertex
100
AcDbPolyFaceMeshVertex
 10
-23.45557668261855
 20
-0.0000000000021657
 30
1595.791061669807
 70
   192
  0
VERTEX
  5
25A
330
235
100
AcDbEntity
  8
0
 62
   250
100
AcDbVertex
100
AcDbPolyFaceMeshVertex
 10
-37.54444561393096
 20
-0.0000000000013987
 30
1605.981184426791
 70
   192
  0
VERTEX
  5
25B
330
235
100
AcDbEntity
  8
0
 62
   250
100
AcDbVertex
100
AcDbPolyFaceMeshVertex
 10
75.96317313872926
 20
-0.0000000000021657
 30
1640.923706993371
 70
   192
  0
VERTEX
  5
25C
330
235
100
AcDbEntity
  8
0
 62
   250
100
AcDbVertex
100
AcDbPolyFaceMeshVertex
 10
-51.21924910114544
 20
-0.0000000000015792
 30
1614.527528875225
 70
   192
  0
VERTEX
  5
25D
330
235
100
AcDbEntity
  8
0
 62
   250
100
AcDbVertex
100
AcDbPolyFaceMeshVertex
 10
-63.78028545909378
 20
-0.0000000000017597
 30
1622.013752244156
 70
   192
  0
VERTEX
  5
25E
330
235
100
AcDbEntity
  8
0
 62
   250
100
AcDbVertex
100
AcDbPolyFaceMeshVertex
 10
-74.52785300258934
 20
-0.0000000000017597
 30
1629.023511762623
 70
   192
  0
VERTEX
  5
25F
330
235
100
AcDbEntity
  8
0
 62
   250
100
AcDbVertex
100
AcDbPolyFaceMeshVertex
 10
-86.67027073161236
 20
-0.0000000000021657
 30
1638.973267096295
 70
   192
  0
VERTEX
  5
260
330
235
100
AcDbEntity
  8
0
 62
   250
100
AcDbVertex
100
AcDbPolyFaceMeshVertex
 10
-90.39526366452917
 20
-0.0000000000016243
 30
1639.968972375877
 70
   192
  0
VERTEX
  5
261
330
235
100
AcDbEntity
  8
0
 62
   250
100
AcDbVertex
100
AcDbPolyFaceMeshVertex
 10
-105.1383610342334
 20
-0.0000000000019853
 30
1629.22998889755
 70
   192
  0
VERTEX
  5
262
330
235
100
AcDbEntity
  8
0
 62
   250
100
AcDbVertex
100
AcDbPolyFaceMeshVertex
 10
-111.6025173224071
 20
-0.0000000000018048
 30
1635.326091821523
 70
   192
  0
VERTEX
  5
263
330
235
100
AcDbEntity
  8
0
 62
   250
100
AcDbVertex
100
AcDbPolyFaceMeshVertex
 10
-106.3498700247301
 20
-0.0000000000018048
 30
1622.872442114349
 70
   192
  0
VERTEX
  5
264
330
235
100
AcDbEntity
  8
0
 62
   250
100
AcDbVertex
100
AcDbPolyFaceMeshVertex
 10
-101.9870826123833
 20
-0.0000000000021657
 30
1633.611726676568
 70
   192
  0
VERTEX
  5
265
330
235
100
AcDbEntity
  8
0
 62
   250
100
AcDbVertex
100
AcDbPolyFaceMeshVertex
 10
-97.00059122136616
 20
-0.0000000000016243
 30
1638.055272414462
 70
   192
  0
VERTEX
  5
266
330
235
100
AcDbEntity
  8
0
 62
   250
100
AcDbVertex
100
AcDbPolyFaceMeshVertex
 10
-114.1547921396391
 20
-0.0000000000020304
 30
1647.131239168753
 70
   192
  0
VERTEX
  5
267
330
235
100
AcDbEntity
  8
0
 62
   250
100
AcDbVertex
100
AcDbPolyFaceMeshVertex
 10
-93.86333508214038
 20
-0.0000000000019853
 30
1639.529125736052
 70
   192
  0
VERTEX
  5
268
330
235
100
AcDbEntity
  8
0
 62
   250
100
AcDbVertex
100
AcDbPolyFaceMeshVertex
 10
62.63099989006221
 20
-0.0000000000019853
 30
1658.415226988204
 70
   192
  0
VERTEX
  5
269
330
235
100
AcDbEntity
  8
0
 62
   250
100
AcDbVertex
100
AcDbPolyFaceMeshVertex
 10
-106.8167281908699
 20
-0.0000000000023462
 30
1664.67948409091
 70
   192
  0
VERTEX
  5
26A
330
235
100
AcDbEntity
  8
0
 62
   250
100
AcDbVertex
100
AcDbPolyFaceMeshVertex
 10
43.17619076986505
 20
-0.0000000000023011
 30
1673.063487786131
 70
   192
  0
VERTEX
  5
26B
330
235
100
AcDbEntity
  8
0
 62
   250
100
AcDbVertex
100
AcDbPolyFaceMeshVertex
 10
-90.01772106766435
 20
-0.0000000000021657
 30
1676.524284806543
 70
   192
  0
VERTEX
  5
26C
330
235
100
AcDbEntity
  8
0
 62
   250
100
AcDbVertex
100
AcDbPolyFaceMeshVertex
 10
20.37199866681749
 20
-0.0000000000019401
 30
1684.315829386602
 70
   192
  0
VERTEX
  5
26D
330
235
100
AcDbEntity
  8
0
 62
   250
100
AcDbVertex
100
AcDbPolyFaceMeshVertex
 10
-64.35081866103431
 20
-0.0000000000018048
 30
1685.409035510032
 70
   192
  0
VERTEX
  5
26E
330
235
100
AcDbEntity
  8
0
 62
   250
100
AcDbVertex
100
AcDbPolyFaceMeshVertex
 10
1.461942604657696
 20
-0.0000000000021657
 30
1689.357845549551
 70
   192
  0
VERTEX
  5
26F
330
235
100
AcDbEntity
  8
0
 62
   250
100
AcDbVertex
100
AcDbPolyFaceMeshVertex
 10
-28.81176107722925
 20
-0.0000000000019853
 30
1691.661287264563
 70
   192
  0
VERTEX
  5
270
330
235
100
AcDbEntity
  8
0
 62
   250
100
AcDbVertex
100
AcDbPolyFaceMeshVertex
 10
27.0442022339653
 20
-0.0000000000016243
 30
1425.334354360078
 70
   192
  0
VERTEX
  5
271
330
235
100
AcDbEntity
  8
0
 62
   250
100
AcDbVertex
100
AcDbPolyFaceMeshVertex
 10
13.44752383728454
 20
-0.0000000000016243
 30
1425.610473720619
 70
   192
  0
VERTEX
  5
272
330
235
100
AcDbEntity
  8
0
 62
   250
100
AcDbVertex
100
AcDbPolyFaceMeshVertex
 10
21.19550995517009
 20
-0.0000000000018048
 30
1424.851145479131
 70
   192
  0
VERTEX
  5
273
330
235
100
AcDbEntity
  8
0
 62
   250
100
AcDbFaceRecord
 10
0.0
 20
0.0
 30
0.0
 70
   128
 71
    -1
 72
     2
 73
     3
  0
VERTEX
  5
274
330
235
100
AcDbEntity
  8
0
 62
   250
100
AcDbFaceRecord
 10
0.0
 20
0.0
 30
0.0
 70
   128
 71
    -2
 72
     1
 73
    -4
  0
VERTEX
  5
275
330
235
100
AcDbEntity
  8
0
 62
   250
100
AcDbFaceRecord
 10
0.0
 20
0.0
 30
0.0
 70
   128
 71
    -2
 72
    -4
 73
     5
  0
VERTEX
  5
276
330
235
100
AcDbEntity
  8
0
 62
   250
100
AcDbFaceRecord
 10
0.0
 20
0.0
 30
0.0
 70
   128
 71
    -5
 72
     4
 73
    -6
  0
VERTEX
  5
277
330
235
100
AcDbEntity
  8
0
 62
   250
100
AcDbFaceRecord
 10
0.0
 20
0.0
 30
0.0
 70
   128
 71
    -5
 72
    -6
 73
     7
  0
VERTEX
  5
278
330
235
100
AcDbEntity
  8
0
 62
   250
100
AcDbFaceRecord
 10
0.0
 20
0.0
 30
0.0
 70
   128
 71
    -7
 72
    -6
 73
     8
  0
VERTEX
  5
279
330
235
100
AcDbEntity
  8
0
 62
   250
100
AcDbFaceRecord
 10
0.0
 20
0.0
 30
0.0
 70
   128
 71
    -8
 72
    -6
 73
     9
  0
VERTEX
  5
27A
330
235
100
AcDbEntity
  8
0
 62
   250
100
AcDbFaceRecord
 10
0.0
 20
0.0
 30
0.0
 70
   128
 71
   -10
 72
    11
 73
    12
  0
VERTEX
  5
27B
330
235
100
AcDbEntity
  8
0
 62
   250
100
AcDbFaceRecord
 10
0.0
 20
0.0
 30
0.0
 70
   128
 71
   -11
 72
    10
 73
   -13
  0
VERTEX
  5
27C
330
235
100
AcDbEntity
  8
0
 62
   250
100
AcDbFaceRecord
 10
0.0
 20
0.0
 30
0.0
 70
   128
 71
   -11
 72
   -13
 73
    14
  0
VERTEX
  5
27D
330
235
100
AcDbEntity
  8
0
 62
   250
100
AcDbFaceRecord
 10
0.0
 20
0.0
 30
0.0
 70
   128
 71
   -14
 72
    13
 73
   -15
  0
VERTEX
  5
27E
330
235
100
AcDbEntity
  8
0
 62
   250
100
AcDbFaceRecord
 10
0.0
 20
0.0
 30
0.0
 70
   128
 71
   -14
 72
   -15
 73
    16
  0
VERTEX
  5
27F
330
235
100
AcDbEntity
  8
0
 62
   250
100
AcDbFaceRecord
 10
0.0
 20
0.0
 30
0.0
 70
   128
 71
   -16
 72
   -15
 73
    17
  0
VERTEX
  5
280
330
235
100
AcDbEntity
  8
0
 62
   250
100
AcDbFaceRecord
 10
0.0
 20
0.0
 30
0.0
 70
   128
 71
   -17
 72
   -15
 73
   -18
  0
VERTEX
  5
281
330
235
100
AcDbEntity
  8
0
 62
   250
100
AcDbFaceRecord
 10
0.0
 20
0.0
 30
0.0
 70
   128
 71
   -18
 72
   -15
 73
    19
  0
VERTEX
  5
282
330
235
100
AcDbEntity
  8
0
 62
   250
100
AcDbFaceRecord
 10
0.0
 20
0.0
 30
0.0
 70
   128
 71
   -19
 72
   -15
 73
    20
  0
VERTEX
  5
283
330
235
100
AcDbEntity
  8
0
 62
   250
100
AcDbFaceRecord
 10
0.0
 20
0.0
 30
0.0
 70
   128
 71
   -20
 72
    15
 73
    -9
  0
VERTEX
  5
284
330
235
100
AcDbEntity
  8
0
 62
   250
100
AcDbFaceRecord
 10
0.0
 20
0.0
 30
0.0
 70
   128
 71
   -20
 72
    -9
 73
    21
  0
VERTEX
  5
285
330
235
100
AcDbEntity
  8
0
 62
   250
100
AcDbFaceRecord
 10
0.0
 20
0.0
 30
0.0
 70
   128
 71
   -21
 72
    -9
 73
    22
  0
VERTEX
  5
286
330
235
100
AcDbEntity
  8
0
 62
   250
100
AcDbFaceRecord
 10
0.0
 20
0.0
 30
0.0
 70
   128
 71
   -22
 72
    -9
 73
    23
  0
VERTEX
  5
287
330
235
100
AcDbEntity
  8
0
 62
   250
100
AcDbFaceRecord
 10
0.0
 20
0.0
 30
0.0
 70
   128
 71
   -23
 72
    -9
 73
    -6
  0
VERTEX
  5
288
330
235
100
AcDbEntity
  8
0
 62
   250
100
AcDbFaceRecord
 10
0.0
 20
0.0
 30
0.0
 70
   128
 71
   -23
 72
     6
 73
   -24
  0
VERTEX
  5
289
330
235
100
AcDbEntity
  8
0
 62
   250
100
AcDbFaceRecord
 10
0.0
 20
0.0
 30
0.0
 70
   128
 71
   -23
 72
   -24
 73
    25
  0
VERTEX
  5
28A
330
235
100
AcDbEntity
  8
0
 62
   250
100
AcDbFaceRecord
 10
0.0
 20
0.0
 30
0.0
 70
   128
 71
   -25
 72
   -24
 73
    26
  0
VERTEX
  5
28B
330
235
100
AcDbEntity
  8
0
 62
   250
100
AcDbFaceRecord
 10
0.0
 20
0.0
 30
0.0
 70
   128
 71
   -26
 72
   -24
 73
    27
  0
VERTEX
  5
28C
330
235
100
AcDbEntity
  8
0
 62
   250
100
AcDbFaceRecord
 10
0.0
 20
0.0
 30
0.0
 70
   128
 71
   -27
 72
    24
 73
   -28
  0
VERTEX
  5
28D
330
235
100
AcDbEntity
  8
0
 62
   250
100
AcDbFaceRecord
 10
0.0
 20
0.0
 30
0.0
 70
   128
 71
   -27
 72
   -28
 73
    29
  0
VERTEX
  5
28E
330
235
100
AcDbEntity
  8
0
 62
   250
100
AcDbFaceRecord
 10
0.0
 20
0.0
 30
0.0
 70
   128
 71
   -29
 72
   -28
 73
    30
  0
VERTEX
  5
28F
330
235
100
AcDbEntity
  8
0
 62
   250
100
AcDbFaceRecord
 10
0.0
 20
0.0
 30
0.0
 70
   128
 71
   -30
 72
   -28
 73
    31
  0
VERTEX
  5
290
330
235
100
AcDbEntity
  8
0
 62
   250
100
AcDbFaceRecord
 10
0.0
 20
0.0
 30
0.0
 70
   128
 71
   -31
 72
   -28
 73
    32
  0
VERTEX
  5
291
330
235
100
AcDbEntity
  8
0
 62
   250
100
AcDbFaceRecord
 10
0.0
 20
0.0
 30
0.0
 70
   128
 71
   -32
 72
    28
 73
   -33
  0
VERTEX
  5
292
330
235
100
AcDbEntity
  8
0
 62
   250
100
AcDbFaceRecord
 10
0.0
 20
0.0
 30
0.0
 70
   128
 71
   -32
 72
   -33
 73
    34
  0
VERTEX
  5
293
330
235
100
AcDbEntity
  8
0
 62
   250
100
AcDbFaceRecord
 10
0.0
 20
0.0
 30
0.0
 70
   128
 71
   -34
 72
   -33
 73
    35
  0
VERTEX
  5
294
330
235
100
AcDbEntity
  8
0
 62
   250
100
AcDbFaceRecord
 10
0.0
 20
0.0
 30
0.0
 70
   128
 71
   -35
 72
   -33
 73
    36
  0
VERTEX
  5
295
330
235
100
AcDbEntity
  8
0
 62
   250
100
AcDbFaceRecord
 10
0.0
 20
0.0
 30
0.0
 70
   128
 71
   -36
 72
   -33
 73
    37
  0
VERTEX
  5
296
330
235
100
AcDbEntity
  8
0
 62
   250
100
AcDbFaceRecord
 10
0.0
 20
0.0
 30
0.0
 70
   128
 71
   -37
 72
    33
 73
   -38
  0
VERTEX
  5
297
330
235
100
AcDbEntity
  8
0
 62
   250
100
AcDbFaceRecord
 10
0.0
 20
0.0
 30
0.0
 70
   128
 71
   -37
 72
   -38
 73
    39
  0
VERTEX
  5
298
330
235
100
AcDbEntity
  8
0
 62
   250
100
AcDbFaceRecord
 10
0.0
 20
0.0
 30
0.0
 70
   128
 71
   -39
 72
   -38
 73
    40
  0
VERTEX
  5
299
330
235
100
AcDbEntity
  8
0
 62
   250
100
AcDbFaceRecord
 10
0.0
 20
0.0
 30
0.0
 70
   128
 71
   -40
 72
   -38
 73
    41
  0
VERTEX
  5
29A
330
235
100
AcDbEntity
  8
0
 62
   250
100
AcDbFaceRecord
 10
0.0
 20
0.0
 30
0.0
 70
   128
 71
   -41
 72
   -38
 73
    42
  0
VERTEX
  5
29B
330
235
100
AcDbEntity
  8
0
 62
   250
100
AcDbFaceRecord
 10
0.0
 20
0.0
 30
0.0
 70
   128
 71
   -42
 72
   -38
 73
    43
  0
VERTEX
  5
29C
330
235
100
AcDbEntity
  8
0
 62
   250
100
AcDbFaceRecord
 10
0.0
 20
0.0
 30
0.0
 70
   128
 71
   -44
 72
    45
 73
    46
  0
VERTEX
  5
29D
330
235
100
AcDbEntity
  8
0
 62
   250
100
AcDbFaceRecord
 10
0.0
 20
0.0
 30
0.0
 70
   128
 71
   -45
 72
    44
 73
   -47
  0
VERTEX
  5
29E
330
235
100
AcDbEntity
  8
0
 62
   250
100
AcDbFaceRecord
 10
0.0
 20
0.0
 30
0.0
 70
   128
 71
   -45
 72
    47
 73
   -48
  0
VERTEX
  5
29F
330
235
100
AcDbEntity
  8
0
 62
   250
100
AcDbFaceRecord
 10
0.0
 20
0.0
 30
0.0
 70
   128
 71
   -45
 72
   -48
 73
    49
  0
VERTEX
  5
2A0
330
235
100
AcDbEntity
  8
0
 62
   250
100
AcDbFaceRecord
 10
0.0
 20
0.0
 30
0.0
 70
   128
 71
   -49
 72
    48
 73
   -50
  0
VERTEX
  5
2A1
330
235
100
AcDbEntity
  8
0
 62
   250
100
AcDbFaceRecord
 10
0.0
 20
0.0
 30
0.0
 70
   128
 71
   -49
 72
    50
 73
   -43
  0
VERTEX
  5
2A2
330
235
100
AcDbEntity
  8
0
 62
   250
100
AcDbFaceRecord
 10
0.0
 20
0.0
 30
0.0
 70
   128
 71
   -49
 72
   -43
 73
   -38
  0
VERTEX
  5
2A3
330
235
100
AcDbEntity
  8
0
 62
   250
100
AcDbFaceRecord
 10
0.0
 20
0.0
 30
0.0
 70
   128
 71
   -49
 72
    38
 73
   -51
  0
VERTEX
  5
2A4
330
235
100
AcDbEntity
  8
0
 62
   250
100
AcDbFaceRecord
 10
0.0
 20
0.0
 30
0.0
 70
   128
 71
   -49
 72
   -51
 73
    52
  0
VERTEX
  5
2A5
330
235
100
AcDbEntity
  8
0
 62
   250
100
AcDbFaceRecord
 10
0.0
 20
0.0
 30
0.0
 70
   128
 71
   -52
 72
    51
 73
   -53
  0
VERTEX
  5
2A6
330
235
100
AcDbEntity
  8
0
 62
   250
100
AcDbFaceRecord
 10
0.0
 20
0.0
 30
0.0
 70
   128
 71
   -52
 72
   -53
 73
    54
  0
VERTEX
  5
2A7
330
235
100
AcDbEntity
  8
0
 62
   250
100
AcDbFaceRecord
 10
0.0
 20
0.0
 30
0.0
 70
   128
 71
   -54
 72
    53
 73
   -55
  0
VERTEX
  5
2A8
330
235
100
AcDbEntity
  8
0
 62
   250
100
AcDbFaceRecord
 10
0.0
 20
0.0
 30
0.0
 70
   128
 71
   -54
 72
   -55
 73
    56
  0
VERTEX
  5
2A9
330
235
100
AcDbEntity
  8
0
 62
   250
100
AcDbFaceRecord
 10
0.0
 20
0.0
 30
0.0
 70
   128
 71
   -56
 72
    55
 73
   -57
  0
VERTEX
  5
2AA
330
235
100
AcDbEntity
  8
0
 62
   250
100
AcDbFaceRecord
 10
0.0
 20
0.0
 30
0.0
 70
   128
 71
   -56
 72
    57
 73
    58
  0
VERTEX
  5
2AB
330
235
100
AcDbEntity
  8
0
 62
   250
100
AcDbFaceRecord
 10
0.0
 20
0.0
 30
0.0
 70
   128
 71
   -59
 72
    60
 73
    61
  0
VERTEX
  5
2AC
330
235
100
AcDbEntity
  8
0
 62
   250
100
AcDbFaceRecord
 10
0.0
 20
0.0
 30
0.0
 70
   128
 71
   -60
 72
    59
 73
   -17
  0
VERTEX
  5
2AD
330
235
100
AcDbEntity
  8
0
 62
   250
100
AcDbFaceRecord
 10
0.0
 20
0.0
 30
0.0
 70
   128
 71
   -60
 72
   -17
 73
    18
  0
SEQEND
  5
2AE
330
235
100
AcDbEntity
  8
0
 62
   250
  0
LINE
  5
2AF
330
74
100
AcDbEntity
  8
0
 62
   178
100
AcDbLine
 10
86.64232212765909
 20
-0.0000000000016243
 30
1446.077436642696
 11
87.33927044336245
 21
-0.0000000000019401
 31
1445.962457291773
  0
LINE
  5
2B0
330
74
100
AcDbEntity
  8
0
 62
   178
100
AcDbLine
 10
87.33927044336245
 20
-0.0000000000019401
 30
1445.962457291773
 11
93.88368393336559
 21
-0.0000000000014438
 31
1442.396811295074
  0
LINE
  5
2B1
330
74
100
AcDbEntity
  8
0
 62
   178
100
AcDbLine
 10
93.88368393336559
 20
-0.0000000000014438
 30
1442.396811295074
 11
107.1257106377965
 21
-0.0000000000004963
 31
1435.182050250565
  0
POLYLINE
  5
2B3
330
74
100
AcDbEntity
  8
0
 62
   253
100
AcDbPolyFaceMesh
 66
     1
 10
0.0
 20
0.0
 30
0.0
 70
    64
 71
     8
 72
     6
1001
ACAD_MATERIAL_MAPPER
1070
     1
1070
     1
1070
     1
1011
-0.0000000000557953
1021
0.0
1031
0.0000000002231811
1011
25.39999999994428
1021
0.0
1031
0.0000000002238151
1011
-0.0000000000557953
1021
0.0
1031
25.40000000022262
1011
-0.0000000000557953
1021
1.0
1031
0.0000000002231811
  0
VERTEX
  5
2B4
330
2B3
100
AcDbEntity
  8
0
 62
   253
100
AcDbVertex
100
AcDbPolyFaceMeshVertex
 10
-222.4776801828617
 20
0.0000000000004061
 30
807.9600172161133
 70
   192
  0
VERTEX
  5
2B5
330
2B3
100
AcDbEntity
  8
0
 62
   253
100
AcDbVertex
100
AcDbPolyFaceMeshVertex
 10
-228.0088580903619
 20
0.0000000000003158
 30
813.5724851053708
 70
   192
  0
VERTEX
  5
2B6
330
2B3
100
AcDbEntity
  8
0
 62
   253
100
AcDbVertex
100
AcDbPolyFaceMeshVertex
 10
-226.2579525968169
 20
0.000000000000767
 30
806.5672488620422
 70
   192
  0
VERTEX
  5
2B7
330
2B3
100
AcDbEntity
  8
0
 62
   253
100
AcDbVertex
100
AcDbPolyFaceMeshVertex
 10
-170.0864598991235
 20
0.0
 30
826.8400478722464
 70
   192
  0
VERTEX
  5
2B8
330
2B3
100
AcDbEntity
  8
0
 62
   253
100
AcDbVertex
100
AcDbPolyFaceMeshVertex
 10
-222.7571793541667
 20
0.0000000000005414
 30
815.7725033349981
 70
   192
  0
VERTEX
  5
2B9
330
2B3
100
AcDbEntity
  8
0
 62
   253
100
AcDbVertex
100
AcDbPolyFaceMeshVertex
 10
-171.8134972703723
 20
0.0000000000006317
 30
834.1666389796212
 70
   192
  0
VERTEX
  5
2BA
330
2B3
100
AcDbEntity
  8
0
 62
   253
100
AcDbVertex
100
AcDbPolyFaceMeshVertex
 10
-166.7145975779027
 20
0.000000000000767
 30
828.0203092243672
 70
   192
  0
VERTEX
  5
2BB
330
2B3
100
AcDbEntity
  8
0
 62
   253
100
AcDbVertex
100
AcDbPolyFaceMeshVertex
 10
-168.9040077531731
 20
0.0000000000004061
 30
835.0253148578189
 70
   192
  0
VERTEX
  5
2BC
330
2B3
100
AcDbEntity
  8
0
 62
   253
100
AcDbFaceRecord
 10
0.0
 20
0.0
 30
0.0
 70
   128
 71
    -1
 72
     2
 73
     3
  0
VERTEX
  5
2BD
330
2B3
100
AcDbEntity
  8
0
 62
   253
100
AcDbFaceRecord
 10
0.0
 20
0.0
 30
0.0
 70
   128
 71
    -2
 72
     1
 73
    -4
  0
VERTEX
  5
2BE
330
2B3
100
AcDbEntity
  8
0
 62
   253
100
AcDbFaceRecord
 10
0.0
 20
0.0
 30
0.0
 70
   128
 71
    -2
 72
    -4
 73
     5
  0
VERTEX
  5
2BF
330
2B3
100
AcDbEntity
  8
0
 62
   253
100
AcDbFaceRecord
 10
0.0
 20
0.0
 30
0.0
 70
   128
 71
    -5
 72
    -4
 73
     6
  0
VERTEX
  5
2C0
330
2B3
100
AcDbEntity
  8
0
 62
   253
100
AcDbFaceRecord
 10
0.0
 20
0.0
 30
0.0
 70
   128
 71
    -6
 72
     4
 73
    -7
  0
VERTEX
  5
2C1
330
2B3
100
AcDbEntity
  8
0
 62
   253
100
AcDbFaceRecord
 10
0.0
 20
0.0
 30
0.0
 70
   128
 71
    -6
 72
     7
 73
     8
  0
SEQEND
  5
2C2
330
2B3
100
AcDbEntity
  8
0
 62
   253
  0
LINE
  5
2C3
330
74
100
AcDbEntity
  8
0
 62
   178
100
AcDbLine
 10
-222.4776801828617
 20
0.0000000000004061
 30
807.9600172161133
 11
-170.0864598991235
 21
0.0
 31
826.8400478722464
  0
LINE
  5
2C4
330
74
100
AcDbEntity
  8
0
 62
   178
100
AcDbLine
 10
-222.7571793541667
 20
0.0000000000005414
 30
815.7725033349981
 11
-171.8134972703723
 21
0.0000000000006317
 31
834.1666389796212
  0
POLYLINE
  5
2C5
330
74
100
AcDbEntity
  8
0
 62
    43
100
AcDbPolyFaceMesh
 66
     1
 10
0.0
 20
0.0
 30
0.0
 70
    64
 71
    10
 72
     8
1001
ACAD_MATERIAL_MAPPER
1070
     1
1070
     1
1070
     1
1011
0.0000000001156053
1021
0.0
1031
0.0000000004335198
1011
25.4000000001157
1021
0.0
1031
0.0000000004335198
1011
0.0000000001156053
1021
0.0
1031
25.40000000043339
1011
0.0000000001156053
1021
1.0
1031
0.0000000004335198
  0
VERTEX
  5
2C6
330
2C5
100
AcDbEntity
  8
0
 62
    43
100
AcDbVertex
100
AcDbPolyFaceMeshVertex
 10
177.9956277069273
 20
-0.0000000000003158
 30
664.968402600302
 70
   192
  0
VERTEX
  5
2C7
330
2C5
100
AcDbEntity
  8
0
 62
    43
100
AcDbVertex
100
AcDbPolyFaceMeshVertex
 10
170.6068872376107
 20
0.0000000000001805
 30
659.9307298302607
 70
   192
  0
VERTEX
  5
2C8
330
2C5
100
AcDbEntity
  8
0
 62
    43
100
AcDbVertex
100
AcDbPolyFaceMeshVertex
 10
174.637025453645
 20
0.0000000000001805
 30
659.9307298302607
 70
   192
  0
VERTEX
  5
2C9
330
2C5
100
AcDbEntity
  8
0
 62
    43
100
AcDbVertex
100
AcDbPolyFaceMeshVertex
 10
165.9052130588275
 20
0.0000000000001805
 30
661.9454530234617
 70
   192
  0
VERTEX
  5
2CA
330
2C5
100
AcDbEntity
  8
0
 62
    43
100
AcDbVertex
100
AcDbPolyFaceMeshVertex
 10
165.1843265823319
 20
0.0000000000001354
 30
669.2474841789009
 70
   192
  0
VERTEX
  5
2CB
330
2C5
100
AcDbEntity
  8
0
 62
    43
100
AcDbVertex
100
AcDbPolyFaceMeshVertex
 10
184.9226872018432
 20
0.0000000000005866
 30
684.7602647113564
 70
   192
  0
VERTEX
  5
2CC
330
2C5
100
AcDbEntity
  8
0
 62
    43
100
AcDbVertex
100
AcDbPolyFaceMeshVertex
 10
180.0282231656176
 20
0.0000000000009024
 30
702.5273720995474
 70
   192
  0
VERTEX
  5
2CD
330
2C5
100
AcDbEntity
  8
0
 62
    43
100
AcDbVertex
100
AcDbPolyFaceMeshVertex
 10
194.4524097721904
 20
0.0000000000001805
 30
711.9873351820021
 70
   192
  0
VERTEX
  5
2CE
330
2C5
100
AcDbEntity
  8
0
 62
    43
100
AcDbVertex
100
AcDbPolyFaceMeshVertex
 10
181.4593880642629
 20
0.0000000000009475
 30
723.1807927122667
 70
   192
  0
VERTEX
  5
2CF
330
2C5
100
AcDbEntity
  8
0
 62
    43
100
AcDbVertex
100
AcDbPolyFaceMeshVertex
 10
194.4524097721901
 20
0.0000000000013536
 30
722.7343319897757
 70
   192
  0
VERTEX
  5
2D0
330
2C5
100
AcDbEntity
  8
0
 62
    43
100
AcDbFaceRecord
 10
0.0
 20
0.0
 30
0.0
 70
   128
 71
    -1
 72
     2
 73
     3
  0
VERTEX
  5
2D1
330
2C5
100
AcDbEntity
  8
0
 62
    43
100
AcDbFaceRecord
 10
0.0
 20
0.0
 30
0.0
 70
   128
 71
    -2
 72
    -1
 73
     4
  0
VERTEX
  5
2D2
330
2C5
100
AcDbEntity
  8
0
 62
    43
100
AcDbFaceRecord
 10
0.0
 20
0.0
 30
0.0
 70
   128
 71
    -4
 72
    -1
 73
     5
  0
VERTEX
  5
2D3
330
2C5
100
AcDbEntity
  8
0
 62
    43
100
AcDbFaceRecord
 10
0.0
 20
0.0
 30
0.0
 70
   128
 71
    -5
 72
     1
 73
    -6
  0
VERTEX
  5
2D4
330
2C5
100
AcDbEntity
  8
0
 62
    43
100
AcDbFaceRecord
 10
0.0
 20
0.0
 30
0.0
 70
   128
 71
    -5
 72
    -6
 73
     7
  0
VERTEX
  5
2D5
330
2C5
100
AcDbEntity
  8
0
 62
    43
100
AcDbFaceRecord
 10
0.0
 20
0.0
 30
0.0
 70
   128
 71
    -7
 72
     6
 73
    -8
  0
VERTEX
  5
2D6
330
2C5
100
AcDbEntity
  8
0
 62
    43
100
AcDbFaceRecord
 10
0.0
 20
0.0
 30
0.0
 70
   128
 71
    -7
 72
    -8
 73
     9
  0
VERTEX
  5
2D7
330
2C5
100
AcDbEntity
  8
0
 62
    43
100
AcDbFaceRecord
 10
0.0
 20
0.0
 30
0.0
 70
   128
 71
    -9
 72
     8
 73
    10
  0
SEQEND
  5
2D8
330
2C5
100
AcDbEntity
  8
0
 62
    43
  0
LINE
  5
2D9
330
74
100
AcDbEntity
  8
0
 62
   178
 60
     1
100
AcDbLine
 10
181.4593880642629
 20
0.0000000000009475
 30
723.1807927122667
 11
194.4524097721901
 21
0.0000000000013536
 31
722.7343319897757
  0
POLYLINE
  5
2DA
330
74
100
AcDbEntity
  8
0
 62
     0
100
AcDbPolyFaceMesh
 66
     1
 10
0.0
 20
0.0
 30
0.0
 70
    64
 71
    16
 72
    14
1001
ACAD_MATERIAL_MAPPER
1070
     1
1070
     1
1070
     1
1011
0.0000000001208553
1021
0.0
1031
-0.0000000007251317
1011
25.40000000012038
1021
0.0
1031
-0.0000000007251317
1011
0.0000000001207766
1021
0.0
1031
25.39999999927502
1011
0.0000000001208553
1021
1.0
1031
-0.0000000007251317
  0
VERTEX
  5
2DB
330
2DA
100
AcDbEntity
  8
0
 62
     0
100
AcDbVertex
100
AcDbPolyFaceMeshVertex
 10
-156.3990718505915
 20
-0.0000000000006768
 30
989.9061370037688
 70
   192
  0
VERTEX
  5
2DC
330
2DA
100
AcDbEntity
  8
0
 62
     0
100
AcDbVertex
100
AcDbPolyFaceMeshVertex
 10
-159.9133357710613
 20
-0.0000000000012633
 30
979.1101932495325
 70
   192
  0
VERTEX
  5
2DD
330
2DA
100
AcDbEntity
  8
0
 62
     0
100
AcDbVertex
100
AcDbPolyFaceMeshVertex
 10
-157.9646823077142
 20
-0.0000000000021206
 30
976.8072077096824
 70
   192
  0
VERTEX
  5
2DE
330
2DA
100
AcDbEntity
  8
0
 62
     0
100
AcDbVertex
100
AcDbPolyFaceMeshVertex
 10
-165.3536533869014
 20
-0.0000000000017145
 30
985.539250714379
 70
   192
  0
VERTEX
  5
2DF
330
2DA
100
AcDbEntity
  8
0
 62
     0
100
AcDbVertex
100
AcDbPolyFaceMeshVertex
 10
-175.7648822133006
 20
-0.0000000000021206
 30
992.9278182262829
 70
   192
  0
VERTEX
  5
2E0
330
2DA
100
AcDbEntity
  8
0
 62
     0
100
AcDbVertex
100
AcDbPolyFaceMeshVertex
 10
-152.9270095376736
 20
-0.0000000000012633
 30
1018.788409868873
 70
   192
  0
VERTEX
  5
2E1
330
2DA
100
AcDbEntity
  8
0
 62
     0
100
AcDbVertex
100
AcDbPolyFaceMeshVertex
 10
-188.5270634340309
 20
-0.0000000000019401
 30
997.9657216062019
 70
   192
  0
VERTEX
  5
2E2
330
2DA
100
AcDbEntity
  8
0
 62
     0
100
AcDbVertex
100
AcDbPolyFaceMeshVertex
 10
-200.9534766733769
 20
-0.0000000000019853
 30
997.9657216062019
 70
   192
  0
VERTEX
  5
2E3
330
2DA
100
AcDbEntity
  8
0
 62
     0
100
AcDbVertex
100
AcDbPolyFaceMeshVertex
 10
-230.8443218369413
 20
-0.0000000000012633
 30
1016.437515127011
 70
   192
  0
VERTEX
  5
2E4
330
2DA
100
AcDbEntity
  8
0
 62
     0
100
AcDbVertex
100
AcDbPolyFaceMeshVertex
 10
-229.8367872829342
 20
-0.0000000000012182
 30
1025.169558131708
 70
   192
  0
VERTEX
  5
2E5
330
2DA
100
AcDbEntity
  8
0
 62
     0
100
AcDbVertex
100
AcDbPolyFaceMeshVertex
 10
-166.6348065603518
 20
-0.0000000000017597
 30
1029.401076423109
 70
   192
  0
VERTEX
  5
2E6
330
2DA
100
AcDbEntity
  8
0
 62
     0
100
AcDbVertex
100
AcDbPolyFaceMeshVertex
 10
-218.4176779877138
 20
-0.0000000000017597
 30
1034.90930864782
 70
   192
  0
VERTEX
  5
2E7
330
2DA
100
AcDbEntity
  8
0
 62
     0
100
AcDbVertex
100
AcDbPolyFaceMeshVertex
 10
-182.1057314000724
 20
-0.0000000000020304
 30
1034.557916847254
 70
   192
  0
VERTEX
  5
2E8
330
2DA
100
AcDbEntity
  8
0
 62
     0
100
AcDbVertex
100
AcDbPolyFaceMeshVertex
 10
-200.9534766733769
 20
-0.0000000000019853
 30
1036.924550713243
 70
   192
  0
VERTEX
  5
2E9
330
2DA
100
AcDbEntity
  8
0
 62
     0
100
AcDbVertex
100
AcDbPolyFaceMeshVertex
 10
-217.0741448424524
 20
-0.0000000000018499
 30
993.5995847989142
 70
   192
  0
VERTEX
  5
2EA
330
2DA
100
AcDbEntity
  8
0
 62
     0
100
AcDbVertex
100
AcDbPolyFaceMeshVertex
 10
-228.4932541376747
 20
-0.0000000000016243
 30
984.5316585079026
 70
   192
  0
VERTEX
  5
2EB
330
2DA
100
AcDbEntity
  8
0
 62
     0
100
AcDbFaceRecord
 10
0.0
 20
0.0
 30
0.0
 70
   128
 71
    -1
 72
     2
 73
     3
  0
VERTEX
  5
2EC
330
2DA
100
AcDbEntity
  8
0
 62
     0
100
AcDbFaceRecord
 10
0.0
 20
0.0
 30
0.0
 70
   128
 71
    -2
 72
    -1
 73
     4
  0
VERTEX
  5
2ED
330
2DA
100
AcDbEntity
  8
0
 62
     0
100
AcDbFaceRecord
 10
0.0
 20
0.0
 30
0.0
 70
   128
 71
    -4
 72
    -1
 73
     5
  0
VERTEX
  5
2EE
330
2DA
100
AcDbEntity
  8
0
 62
     0
100
AcDbFaceRecord
 10
0.0
 20
0.0
 30
0.0
 70
   128
 71
    -5
 72
     1
 73
    -6
  0
VERTEX
  5
2EF
330
2DA
100
AcDbEntity
  8
0
 62
     0
100
AcDbFaceRecord
 10
0.0
 20
0.0
 30
0.0
 70
   128
 71
    -5
 72
    -6
 73
     7
  0
VERTEX
  5
2F0
330
2DA
100
AcDbEntity
  8
0
 62
     0
100
AcDbFaceRecord
 10
0.0
 20
0.0
 30
0.0
 70
   128
 71
    -7
 72
    -6
 73
     8
  0
VERTEX
  5
2F1
330
2DA
100
AcDbEntity
  8
0
 62
     0
100
AcDbFaceRecord
 10
0.0
 20
0.0
 30
0.0
 70
   128
 71
    -8
 72
    -6
 73
    -9
  0
VERTEX
  5
2F2
330
2DA
100
AcDbEntity
  8
0
 62
     0
100
AcDbFaceRecord
 10
0.0
 20
0.0
 30
0.0
 70
   128
 71
    -9
 72
    -6
 73
    10
  0
VERTEX
  5
2F3
330
2DA
100
AcDbEntity
  8
0
 62
     0
100
AcDbFaceRecord
 10
0.0
 20
0.0
 30
0.0
 70
   128
 71
   -10
 72
     6
 73
   -11
  0
VERTEX
  5
2F4
330
2DA
100
AcDbEntity
  8
0
 62
     0
100
AcDbFaceRecord
 10
0.0
 20
0.0
 30
0.0
 70
   128
 71
   -10
 72
   -11
 73
    12
  0
VERTEX
  5
2F5
330
2DA
100
AcDbEntity
  8
0
 62
     0
100
AcDbFaceRecord
 10
0.0
 20
0.0
 30
0.0
 70
   128
 71
   -12
 72
    11
 73
   -13
  0
VERTEX
  5
2F6
330
2DA
100
AcDbEntity
  8
0
 62
     0
100
AcDbFaceRecord
 10
0.0
 20
0.0
 30
0.0
 70
   128
 71
   -12
 72
    13
 73
    14
  0
VERTEX
  5
2F7
330
2DA
100
AcDbEntity
  8
0
 62
     0
100
AcDbFaceRecord
 10
0.0
 20
0.0
 30
0.0
 70
   128
 71
   -15
 72
     9
 73
    16
  0
VERTEX
  5
2F8
330
2DA
100
AcDbEntity
  8
0
 62
     0
100
AcDbFaceRecord
 10
0.0
 20
0.0
 30
0.0
 70
   128
 71
    -9
 72
    15
 73
    -8
  0
SEQEND
  5
2F9
330
2DA
100
AcDbEntity
  8
0
 62
     0
  0
LINE
  5
2FA
330
74
100
AcDbEntity
  8
0
 62
   178
100
AcDbLine
 10
-152.9270095376736
 20
-0.0000000000012633
 30
1018.788409868873
 11
-156.3990718505915
 21
-0.0000000000006768
 31
989.9061370037688
  0
POLYLINE
  5
2FB
330
74
100
AcDbEntity
  8
0
 62
    43
100
AcDbPolyFaceMesh
 66
     1
 10
0.0
 20
0.0
 30
0.0
 70
    64
 71
    16
 72
    14
1001
ACAD_MATERIAL_MAPPER
1070
     1
1070
     1
1070
     1
1011
-0.0000000000020999
1021
0.0
1031
0.0000000000251992
1011
25.39999999999789
1021
0.0
1031
0.0000000000252648
1011
-0.0000000000020999
1021
0.0
1031
25.40000000002497
1011
-0.0000000000020999
1021
1.0
1031
0.0000000000251992
  0
VERTEX
  5
2FC
330
2FB
100
AcDbEntity
  8
0
 62
    43
100
AcDbVertex
100
AcDbPolyFaceMeshVertex
 10
-171.8134972703723
 20
0.0000000000006317
 30
834.1666389796212
 70
   192
  0
VERTEX
  5
2FD
330
2FB
100
AcDbEntity
  8
0
 62
    43
100
AcDbVertex
100
AcDbPolyFaceMeshVertex
 10
-224.0687730314238
 20
-0.0000000000002707
 30
826.2688272061273
 70
   192
  0
VERTEX
  5
2FE
330
2FB
100
AcDbEntity
  8
0
 62
    43
100
AcDbVertex
100
AcDbPolyFaceMeshVertex
 10
-222.7571793541667
 20
0.0000000000005414
 30
815.7725033349981
 70
   192
  0
VERTEX
  5
2FF
330
2FB
100
AcDbEntity
  8
0
 62
    43
100
AcDbVertex
100
AcDbPolyFaceMeshVertex
 10
-227.5711605432101
 20
0.0000000000005866
 30
842.030666406086
 70
   192
  0
VERTEX
  5
300
330
2FB
100
AcDbEntity
  8
0
 62
    43
100
AcDbVertex
100
AcDbPolyFaceMeshVertex
 10
-174.2581925798347
 20
0.000000000000361
 30
842.4518753470111
 70
   192
  0
VERTEX
  5
301
330
2FB
100
AcDbEntity
  8
0
 62
    43
100
AcDbVertex
100
AcDbPolyFaceMeshVertex
 10
-223.6308448743953
 20
0.0000000000002256
 30
866.5481861231686
 70
   192
  0
VERTEX
  5
302
330
2FB
100
AcDbEntity
  8
0
 62
    43
100
AcDbVertex
100
AcDbPolyFaceMeshVertex
 10
-173.1054891080531
 20
0.0000000000004512
 30
894.22909683238
 70
   192
  0
VERTEX
  5
303
330
2FB
100
AcDbEntity
  8
0
 62
    43
100
AcDbVertex
100
AcDbPolyFaceMeshVertex
 10
-224.9441681257251
 20
-0.0000000000010829
 30
916.021269019304
 70
   192
  0
VERTEX
  5
304
330
2FB
100
AcDbEntity
  8
0
 62
    43
100
AcDbVertex
100
AcDbPolyFaceMeshVertex
 10
-170.899936241373
 20
-0.0000000000019853
 30
928.1944726133594
 70
   192
  0
VERTEX
  5
305
330
2FB
100
AcDbEntity
  8
0
 62
    43
100
AcDbVertex
100
AcDbPolyFaceMeshVertex
 10
-228.4932541376747
 20
-0.0000000000016243
 30
984.5316585079026
 70
   192
  0
VERTEX
  5
306
330
2FB
100
AcDbEntity
  8
0
 62
    43
100
AcDbVertex
100
AcDbPolyFaceMeshVertex
 10
-159.9133357710613
 20
-0.0000000000012633
 30
979.1101932495325
 70
   192
  0
VERTEX
  5
307
330
2FB
100
AcDbEntity
  8
0
 62
    43
100
AcDbVertex
100
AcDbPolyFaceMeshVertex
 10
-165.3536533869014
 20
-0.0000000000017145
 30
985.539250714379
 70
   192
  0
VERTEX
  5
308
330
2FB
100
AcDbEntity
  8
0
 62
    43
100
AcDbVertex
100
AcDbPolyFaceMeshVertex
 10
-217.0741448424524
 20
-0.0000000000018499
 30
993.5995847989142
 70
   192
  0
VERTEX
  5
309
330
2FB
100
AcDbEntity
  8
0
 62
    43
100
AcDbVertex
100
AcDbPolyFaceMeshVertex
 10
-175.7648822133006
 20
-0.0000000000021206
 30
992.9278182262829
 70
   192
  0
VERTEX
  5
30A
330
2FB
100
AcDbEntity
  8
0
 62
    43
100
AcDbVertex
100
AcDbPolyFaceMeshVertex
 10
-188.5270634340309
 20
-0.0000000000019401
 30
997.9657216062019
 70
   192
  0
VERTEX
  5
30B
330
2FB
100
AcDbEntity
  8
0
 62
    43
100
AcDbVertex
100
AcDbPolyFaceMeshVertex
 10
-200.9534766733769
 20
-0.0000000000019853
 30
997.9657216062019
 70
   192
  0
VERTEX
  5
30C
330
2FB
100
AcDbEntity
  8
0
 62
    43
100
AcDbFaceRecord
 10
0.0
 20
0.0
 30
0.0
 70
   128
 71
    -1
 72
     2
 73
     3
  0
VERTEX
  5
30D
330
2FB
100
AcDbEntity
  8
0
 62
    43
100
AcDbFaceRecord
 10
0.0
 20
0.0
 30
0.0
 70
   128
 71
    -2
 72
    -1
 73
     4
  0
VERTEX
  5
30E
330
2FB
100
AcDbEntity
  8
0
 62
    43
100
AcDbFaceRecord
 10
0.0
 20
0.0
 30
0.0
 70
   128
 71
    -4
 72
     1
 73
    -5
  0
VERTEX
  5
30F
330
2FB
100
AcDbEntity
  8
0
 62
    43
100
AcDbFaceRecord
 10
0.0
 20
0.0
 30
0.0
 70
   128
 71
    -4
 72
    -5
 73
     6
  0
VERTEX
  5
310
330
2FB
100
AcDbEntity
  8
0
 62
    43
100
AcDbFaceRecord
 10
0.0
 20
0.0
 30
0.0
 70
   128
 71
    -6
 72
     5
 73
    -7
  0
VERTEX
  5
311
330
2FB
100
AcDbEntity
  8
0
 62
    43
100
AcDbFaceRecord
 10
0.0
 20
0.0
 30
0.0
 70
   128
 71
    -6
 72
    -7
 73
     8
  0
VERTEX
  5
312
330
2FB
100
AcDbEntity
  8
0
 62
    43
100
AcDbFaceRecord
 10
0.0
 20
0.0
 30
0.0
 70
   128
 71
    -8
 72
     7
 73
    -9
  0
VERTEX
  5
313
330
2FB
100
AcDbEntity
  8
0
 62
    43
100
AcDbFaceRecord
 10
0.0
 20
0.0
 30
0.0
 70
   128
 71
    -8
 72
    -9
 73
    10
  0
VERTEX
  5
314
330
2FB
100
AcDbEntity
  8
0
 62
    43
100
AcDbFaceRecord
 10
0.0
 20
0.0
 30
0.0
 70
   128
 71
   -10
 72
     9
 73
   -11
  0
VERTEX
  5
315
330
2FB
100
AcDbEntity
  8
0
 62
    43
100
AcDbFaceRecord
 10
0.0
 20
0.0
 30
0.0
 70
   128
 71
   -10
 72
    11
 73
   -12
  0
VERTEX
  5
316
330
2FB
100
AcDbEntity
  8
0
 62
    43
100
AcDbFaceRecord
 10
0.0
 20
0.0
 30
0.0
 70
   128
 71
   -10
 72
   -12
 73
    13
  0
VERTEX
  5
317
330
2FB
100
AcDbEntity
  8
0
 62
    43
100
AcDbFaceRecord
 10
0.0
 20
0.0
 30
0.0
 70
   128
 71
   -13
 72
    12
 73
   -14
  0
VERTEX
  5
318
330
2FB
100
AcDbEntity
  8
0
 62
    43
100
AcDbFaceRecord
 10
0.0
 20
0.0
 30
0.0
 70
   128
 71
   -13
 72
    14
 73
   -15
  0
VERTEX
  5
319
330
2FB
100
AcDbEntity
  8
0
 62
    43
100
AcDbFaceRecord
 10
0.0
 20
0.0
 30
0.0
 70
   128
 71
   -13
 72
    15
 73
    16
  0
SEQEND
  5
31A
330
2FB
100
AcDbEntity
  8
0
 62
    43
  0
LINE
  5
31B
330
74
100
AcDbEntity
  8
0
 62
   178
100
AcDbLine
 10
-222.7571793541667
 20
0.0000000000005414
 30
815.7725033349981
 11
-171.8134972703723
 21
0.0000000000006317
 31
834.1666389796212
  0
POLYLINE
  5
31C
330
74
100
AcDbEntity
  8
0
 62
     0
100
AcDbPolyFaceMesh
 66
     1
 10
0.0
 20
0.0
 30
0.0
 70
    64
 71
    27
 72
    25
1001
ACAD_MATERIAL_MAPPER
1070
     1
1070
     1
1070
     1
1011
-0.0000000000004065
1021
0.0
1031
-0.0000000000130072
1011
25.39999999999959
1021
0.0
1031
-0.0000000000130072
1011
-0.0000000000004033
1021
0.0
1031
25.39999999998743
1011
-0.0000000000004065
1021
1.0
1031
-0.0000000000130072
  0
VERTEX
  5
31D
330
31C
100
AcDbEntity
  8
0
 62
     0
100
AcDbVertex
100
AcDbPolyFaceMeshVertex
 10
58.23807353597765
 20
-0.0000000000003158
 30
1340.540268817173
 70
   192
  0
VERTEX
  5
31E
330
31C
100
AcDbEntity
  8
0
 62
     0
100
AcDbVertex
100
AcDbPolyFaceMeshVertex
 10
14.15094323300807
 20
-0.0000000000008573
 30
1319.426521604577
 70
   192
  0
VERTEX
  5
31F
330
31C
100
AcDbEntity
  8
0
 62
     0
100
AcDbVertex
100
AcDbPolyFaceMeshVertex
 10
15.11817745505234
 20
-0.0000000000011731
 30
1303.518159112327
 70
   192
  0
VERTEX
  5
320
330
31C
100
AcDbEntity
  8
0
 62
     0
100
AcDbVertex
100
AcDbPolyFaceMeshVertex
 10
49.26624571314751
 20
-0.0000000000009024
 30
1349.576004764247
 70
   192
  0
VERTEX
  5
321
330
31C
100
AcDbEntity
  8
0
 62
     0
100
AcDbVertex
100
AcDbPolyFaceMeshVertex
 10
81.75843614353329
 20
-0.0000000000014438
 30
1367.544397188918
 70
   192
  0
VERTEX
  5
322
330
31C
100
AcDbEntity
  8
0
 62
     0
100
AcDbVertex
100
AcDbPolyFaceMeshVertex
 10
71.73665829773579
 20
-0.0000000000010829
 30
1375.374667655836
 70
   192
  0
VERTEX
  5
323
330
31C
100
AcDbEntity
  8
0
 62
     0
100
AcDbVertex
100
AcDbPolyFaceMeshVertex
 10
100.0619421063673
 20
0.000000000000361
 30
1393.735798700524
 70
   192
  0
VERTEX
  5
324
330
31C
100
AcDbEntity
  8
0
 62
     0
100
AcDbVertex
100
AcDbPolyFaceMeshVertex
 10
89.17687787718319
 20
0.000000000000361
 30
1400.33074953345
 70
   192
  0
VERTEX
  5
325
330
31C
100
AcDbEntity
  8
0
 62
     0
100
AcDbVertex
100
AcDbPolyFaceMeshVertex
 10
106.2611968284637
 20
0.0000000000005414
 30
1405.657810485711
 70
   192
  0
VERTEX
  5
326
330
31C
100
AcDbEntity
  8
0
 62
     0
100
AcDbVertex
100
AcDbPolyFaceMeshVertex
 10
94.2351464735398
 20
0.0000000000001805
 30
1410.058489483133
 70
   192
  0
VERTEX
  5
327
330
31C
100
AcDbEntity
  8
0
 62
     0
100
AcDbVertex
100
AcDbPolyFaceMeshVertex
 10
109.5995054125321
 20
0.0000000000002707
 30
1420.4417485009
 70
   192
  0
VERTEX
  5
328
330
31C
100
AcDbEntity
  8
0
 62
     0
100
AcDbVertex
100
AcDbPolyFaceMeshVertex
 10
96.89950541253214
 20
0.0000000000001805
 30
1421.85779335584
 70
   192
  0
VERTEX
  5
329
330
31C
100
AcDbEntity
  8
0
 62
     0
100
AcDbVertex
100
AcDbPolyFaceMeshVertex
 10
109.5995054125321
 20
0.0000000000002707
 30
1431.14144145759
 70
   192
  0
VERTEX
  5
32A
330
31C
100
AcDbEntity
  8
0
 62
     0
100
AcDbVertex
100
AcDbPolyFaceMeshVertex
 10
96.89950541253177
 20
-0.0000000000008573
 30
1427.562500304279
 70
   192
  0
VERTEX
  5
32B
330
31C
100
AcDbEntity
  8
0
 62
     0
100
AcDbVertex
100
AcDbPolyFaceMeshVertex
 10
96.89950541253177
 20
-0.0000000000008573
 30
1433.912500304279
 70
   192
  0
VERTEX
  5
32C
330
31C
100
AcDbEntity
  8
0
 62
     0
100
AcDbVertex
100
AcDbPolyFaceMeshVertex
 10
107.1257106377965
 20
-0.0000000000004963
 30
1435.182050250565
 70
   192
  0
VERTEX
  5
32D
330
31C
100
AcDbEntity
  8
0
 62
     0
100
AcDbVertex
100
AcDbPolyFaceMeshVertex
 10
93.88368393336559
 20
-0.0000000000014438
 30
1442.396811295074
 70
   192
  0
VERTEX
  5
32E
330
31C
100
AcDbEntity
  8
0
 62
     0
100
AcDbVertex
100
AcDbPolyFaceMeshVertex
 10
-20.16167462664711
 20
-0.0000000000010829
 30
1327.038233457534
 70
   192
  0
VERTEX
  5
32F
330
31C
100
AcDbEntity
  8
0
 62
     0
100
AcDbVertex
100
AcDbPolyFaceMeshVertex
 10
-11.95858719189291
 20
-0.0000000000010377
 30
1336.83300322162
 70
   192
  0
VERTEX
  5
330
330
31C
100
AcDbEntity
  8
0
 62
     0
100
AcDbVertex
100
AcDbPolyFaceMeshVertex
 10
-50.65037589715828
 20
-0.0000000000018048
 30
1358.833627945406
 70
   192
  0
VERTEX
  5
331
330
31C
100
AcDbEntity
  8
0
 62
     0
100
AcDbVertex
100
AcDbPolyFaceMeshVertex
 10
-41.05797899990729
 20
-0.0000000000012633
 30
1367.179544836624
 70
   192
  0
VERTEX
  5
332
330
31C
100
AcDbEntity
  8
0
 62
     0
100
AcDbVertex
100
AcDbPolyFaceMeshVertex
 10
-75.911151248836
 20
0.0000000000001805
 30
1390.874448995217
 70
   192
  0
VERTEX
  5
333
330
31C
100
AcDbEntity
  8
0
 62
     0
100
AcDbVertex
100
AcDbPolyFaceMeshVertex
 10
-64.82467571263301
 20
0.0000000000005414
 30
1397.325273370922
 70
   192
  0
VERTEX
  5
334
330
31C
100
AcDbEntity
  8
0
 62
     0
100
AcDbVertex
100
AcDbPolyFaceMeshVertex
 10
-89.26846398571735
 20
-0.0000000000014438
 30
1415.422871237455
 70
   192
  0
VERTEX
  5
335
330
31C
100
AcDbEntity
  8
0
 62
     0
100
AcDbVertex
100
AcDbPolyFaceMeshVertex
 10
-76.89592776956063
 20
0.0000000000025718
 30
1419.510139318377
 70
   192
  0
VERTEX
  5
336
330
31C
100
AcDbEntity
  8
0
 62
     0
100
AcDbVertex
100
AcDbPolyFaceMeshVertex
 10
-91.08541194493576
 20
0.0
 30
1428.334107320514
 70
   192
  0
VERTEX
  5
337
330
31C
100
AcDbEntity
  8
0
 62
     0
100
AcDbVertex
100
AcDbPolyFaceMeshVertex
 10
-78.38912559258877
 20
-0.0000000000007219
 30
1432.181241804114
 70
   192
  0
VERTEX
  5
338
330
31C
100
AcDbEntity
  8
0
 62
     0
100
AcDbFaceRecord
 10
0.0
 20
0.0
 30
0.0
 70
   128
 71
    -1
 72
    -2
 73
     3
  0
VERTEX
  5
339
330
31C
100
AcDbEntity
  8
0
 62
     0
100
AcDbFaceRecord
 10
0.0
 20
0.0
 30
0.0
 70
   128
 71
    -2
 72
    -1
 73
     4
  0
VERTEX
  5
33A
330
31C
100
AcDbEntity
  8
0
 62
     0
100
AcDbFaceRecord
 10
0.0
 20
0.0
 30
0.0
 70
   128
 71
    -4
 72
     1
 73
    -5
  0
VERTEX
  5
33B
330
31C
100
AcDbEntity
  8
0
 62
     0
100
AcDbFaceRecord
 10
0.0
 20
0.0
 30
0.0
 70
   128
 71
    -4
 72
    -5
 73
     6
  0
VERTEX
  5
33C
330
31C
100
AcDbEntity
  8
0
 62
     0
100
AcDbFaceRecord
 10
0.0
 20
0.0
 30
0.0
 70
   128
 71
    -6
 72
     5
 73
    -7
  0
VERTEX
  5
33D
330
31C
100
AcDbEntity
  8
0
 62
     0
100
AcDbFaceRecord
 10
0.0
 20
0.0
 30
0.0
 70
   128
 71
    -6
 72
    -7
 73
     8
  0
VERTEX
  5
33E
330
31C
100
AcDbEntity
  8
0
 62
     0
100
AcDbFaceRecord
 10
0.0
 20
0.0
 30
0.0
 70
   128
 71
    -8
 72
     7
 73
    -9
  0
VERTEX
  5
33F
330
31C
100
AcDbEntity
  8
0
 62
     0
100
AcDbFaceRecord
 10
0.0
 20
0.0
 30
0.0
 70
   128
 71
    -8
 72
    -9
 73
    10
  0
VERTEX
  5
340
330
31C
100
AcDbEntity
  8
0
 62
     0
100
AcDbFaceRecord
 10
0.0
 20
0.0
 30
0.0
 70
   128
 71
   -10
 72
     9
 73
   -11
  0
VERTEX
  5
341
330
31C
100
AcDbEntity
  8
0
 62
     0
100
AcDbFaceRecord
 10
0.0
 20
0.0
 30
0.0
 70
   128
 71
   -10
 72
   -11
 73
    12
  0
VERTEX
  5
342
330
31C
100
AcDbEntity
  8
0
 62
     0
100
AcDbFaceRecord
 10
0.0
 20
0.0
 30
0.0
 70
   128
 71
   -12
 72
    11
 73
   -13
  0
VERTEX
  5
343
330
31C
100
AcDbEntity
  8
0
 62
     0
100
AcDbFaceRecord
 10
0.0
 20
0.0
 30
0.0
 70
   128
 71
   -12
 72
   -13
 73
    14
  0
VERTEX
  5
344
330
31C
100
AcDbEntity
  8
0
 62
     0
100
AcDbFaceRecord
 10
0.0
 20
0.0
 30
0.0
 70
   128
 71
   -14
 72
   -13
 73
    15
  0
VERTEX
  5
345
330
31C
100
AcDbEntity
  8
0
 62
     0
100
AcDbFaceRecord
 10
0.0
 20
0.0
 30
0.0
 70
   128
 71
   -15
 72
    13
 73
   -16
  0
VERTEX
  5
346
330
31C
100
AcDbEntity
  8
0
 62
     0
100
AcDbFaceRecord
 10
0.0
 20
0.0
 30
0.0
 70
   128
 71
   -15
 72
    16
 73
    17
  0
VERTEX
  5
347
330
31C
100
AcDbEntity
  8
0
 62
     0
100
AcDbFaceRecord
 10
0.0
 20
0.0
 30
0.0
 70
   128
 71
    -2
 72
    18
 73
    -3
  0
VERTEX
  5
348
330
31C
100
AcDbEntity
  8
0
 62
     0
100
AcDbFaceRecord
 10
0.0
 20
0.0
 30
0.0
 70
   128
 71
   -18
 72
     2
 73
   -19
  0
VERTEX
  5
349
330
31C
100
AcDbEntity
  8
0
 62
     0
100
AcDbFaceRecord
 10
0.0
 20
0.0
 30
0.0
 70
   128
 71
   -18
 72
   -19
 73
    20
  0
VERTEX
  5
34A
330
31C
100
AcDbEntity
  8
0
 62
     0
100
AcDbFaceRecord
 10
0.0
 20
0.0
 30
0.0
 70
   128
 71
   -20
 72
    19
 73
   -21
  0
VERTEX
  5
34B
330
31C
100
AcDbEntity
  8
0
 62
     0
100
AcDbFaceRecord
 10
0.0
 20
0.0
 30
0.0
 70
   128
 71
   -20
 72
   -21
 73
    22
  0
VERTEX
  5
34C
330
31C
100
AcDbEntity
  8
0
 62
     0
100
AcDbFaceRecord
 10
0.0
 20
0.0
 30
0.0
 70
   128
 71
   -22
 72
    21
 73
   -23
  0
VERTEX
  5
34D
330
31C
100
AcDbEntity
  8
0
 62
     0
100
AcDbFaceRecord
 10
0.0
 20
0.0
 30
0.0
 70
   128
 71
   -22
 72
   -23
 73
    24
  0
VERTEX
  5
34E
330
31C
100
AcDbEntity
  8
0
 62
     0
100
AcDbFaceRecord
 10
0.0
 20
0.0
 30
0.0
 70
   128
 71
   -24
 72
    23
 73
   -25
  0
VERTEX
  5
34F
330
31C
100
AcDbEntity
  8
0
 62
     0
100
AcDbFaceRecord
 10
0.0
 20
0.0
 30
0.0
 70
   128
 71
   -24
 72
   -25
 73
    26
  0
VERTEX
  5
350
330
31C
100
AcDbEntity
  8
0
 62
     0
100
AcDbFaceRecord
 10
0.0
 20
0.0
 30
0.0
 70
   128
 71
   -26
 72
    25
 73
    27
  0
SEQEND
  5
351
330
31C
100
AcDbEntity
  8
0
 62
     0
  0
LINE
  5
352
330
74
100
AcDbEntity
  8
0
 62
   178
100
AcDbLine
 10
93.88368393336559
 20
-0.0000000000014438
 30
1442.396811295074
 11
107.1257106377965
 21
-0.0000000000004963
 31
1435.182050250565
  0
LINE
  5
353
330
74
100
AcDbEntity
  8
0
 62
   178
100
AcDbLine
 10
-91.08541194493576
 20
0.0
 30
1428.334107320514
 11
-78.38912559258877
 21
-0.0000000000007219
 31
1432.181241804114
  0
POLYLINE
  5
355
330
74
100
AcDbEntity
  8
0
 62
   251
100
AcDbPolyFaceMesh
 66
     1
 10
0.0
 20
0.0
 30
0.0
 70
    64
 71
    19
 72
    17
1001
ACAD_MATERIAL_MAPPER
1070
     1
1070
     1
1070
     1
1011
0.0000000000005834
1021
0.0
1031
0.0
1011
25.40000000000057
1021
0.0
1031
0.0
1011
0.0000000000005834
1021
0.0
1031
25.40000000000002
1011
0.0000000000005834
1021
1.0
1031
0.0
  0
VERTEX
  5
356
330
355
100
AcDbEntity
  8
0
 62
   251
100
AcDbVertex
100
AcDbPolyFaceMeshVertex
 10
282.8294301198141
 20
0.0000000000005414
 30
10.38582728057682
 70
   192
  0
VERTEX
  5
357
330
355
100
AcDbEntity
  8
0
 62
   251
100
AcDbVertex
100
AcDbPolyFaceMeshVertex
 10
221.8427388664137
 20
0.0000000000001354
 30
12.22549912870345
 70
   192
  0
VERTEX
  5
358
330
355
100
AcDbEntity
  8
0
 62
   251
100
AcDbVertex
100
AcDbPolyFaceMeshVertex
 10
262.4468469068963
 20
-0.0000000000002256
 30
9.969945992842074
 70
   192
  0
VERTEX
  5
359
330
355
100
AcDbEntity
  8
0
 62
   251
100
AcDbVertex
100
AcDbPolyFaceMeshVertex
 10
290.621229029043
 20
-0.0000000000000451
 30
19.96263602412133
 70
   192
  0
VERTEX
  5
35A
330
355
100
AcDbEntity
  8
0
 62
   251
100
AcDbVertex
100
AcDbPolyFaceMeshVertex
 10
248.3044480010359
 20
0.0000000000001354
 30
17.60475306979154
 70
   192
  0
VERTEX
  5
35B
330
355
100
AcDbEntity
  8
0
 62
   251
100
AcDbVertex
100
AcDbPolyFaceMeshVertex
 10
205.904154593784
 20
0.0
 30
17.58784811740002
 70
   192
  0
VERTEX
  5
35C
330
355
100
AcDbEntity
  8
0
 62
   251
100
AcDbVertex
100
AcDbPolyFaceMeshVertex
 10
217.9043921062091
 20
-0.0000000000001805
 30
20.870253675118
 70
   192
  0
VERTEX
  5
35D
330
355
100
AcDbEntity
  8
0
 62
   251
100
AcDbVertex
100
AcDbPolyFaceMeshVertex
 10
180.0167774002944
 20
0.0000000000002256
 30
35.74310378856836
 70
   192
  0
VERTEX
  5
35E
330
355
100
AcDbEntity
  8
0
 62
   251
100
AcDbVertex
100
AcDbPolyFaceMeshVertex
 10
190.5367099559684
 20
-0.0000000000001354
 30
38.27437669723535
 70
   192
  0
VERTEX
  5
35F
330
355
100
AcDbEntity
  8
0
 62
   251
100
AcDbVertex
100
AcDbPolyFaceMeshVertex
 10
140.019294566295
 20
-0.0000000000003158
 30
41.95030608238312
 70
   192
  0
VERTEX
  5
360
330
355
100
AcDbEntity
  8
0
 62
   251
100
AcDbVertex
100
AcDbPolyFaceMeshVertex
 10
157.5602811735554
 20
0.0000000000000451
 30
34.2162446748445
 70
   192
  0
VERTEX
  5
361
330
355
100
AcDbEntity
  8
0
 62
   251
100
AcDbVertex
100
AcDbPolyFaceMeshVertex
 10
165.2118410386698
 20
-0.0000000000006768
 30
48.546104874809
 70
   192
  0
VERTEX
  5
362
330
355
100
AcDbEntity
  8
0
 62
   251
100
AcDbVertex
100
AcDbPolyFaceMeshVertex
 10
113.5805420364675
 20
0.0
 30
47.50653648993956
 70
   192
  0
VERTEX
  5
363
330
355
100
AcDbEntity
  8
0
 62
   251
100
AcDbVertex
100
AcDbPolyFaceMeshVertex
 10
97.64998359303596
 20
0.0000000000002256
 30
54.44589944511076
 70
   192
  0
VERTEX
  5
364
330
355
100
AcDbEntity
  8
0
 62
   251
100
AcDbVertex
100
AcDbPolyFaceMeshVertex
 10
138.8221418142159
 20
0.0000000000004512
 30
52.22906512668776
 70
   192
  0
VERTEX
  5
365
330
355
100
AcDbEntity
  8
0
 62
   251
100
AcDbVertex
100
AcDbPolyFaceMeshVertex
 10
109.8204848641633
 20
0.0000000000005414
 30
61.1548480821592
 70
   192
  0
VERTEX
  5
366
330
355
100
AcDbEntity
  8
0
 62
   251
100
AcDbVertex
100
AcDbPolyFaceMeshVertex
 10
97.39317581329841
 20
0.0000000000002707
 30
64.25299288879546
 70
   192
  0
VERTEX
  5
367
330
355
100
AcDbEntity
  8
0
 62
   251
100
AcDbVertex
100
AcDbPolyFaceMeshVertex
 10
101.3851357373647
 20
0.0000000000005414
 30
68.22875501692533
 70
   192
  0
VERTEX
  5
368
330
355
100
AcDbEntity
  8
0
 62
   251
100
AcDbVertex
100
AcDbPolyFaceMeshVertex
 10
101.5268956778496
 20
0.0
 30
68.369939751589
 70
   192
  0
VERTEX
  5
369
330
355
100
AcDbEntity
  8
0
 62
   251
100
AcDbFaceRecord
 10
0.0
 20
0.0
 30
0.0
 70
   128
 71
    -1
 72
     2
 73
     3
  0
VERTEX
  5
36A
330
355
100
AcDbEntity
  8
0
 62
   251
100
AcDbFaceRecord
 10
0.0
 20
0.0
 30
0.0
 70
   128
 71
    -2
 72
     1
 73
    -4
  0
VERTEX
  5
36B
330
355
100
AcDbEntity
  8
0
 62
   251
100
AcDbFaceRecord
 10
0.0
 20
0.0
 30
0.0
 70
   128
 71
    -2
 72
     4
 73
    -5
  0
VERTEX
  5
36C
330
355
100
AcDbEntity
  8
0
 62
   251
100
AcDbFaceRecord
 10
0.0
 20
0.0
 30
0.0
 70
   128
 71
    -2
 72
    -5
 73
     6
  0
VERTEX
  5
36D
330
355
100
AcDbEntity
  8
0
 62
   251
100
AcDbFaceRecord
 10
0.0
 20
0.0
 30
0.0
 70
   128
 71
    -6
 72
    -7
 73
     8
  0
VERTEX
  5
36E
330
355
100
AcDbEntity
  8
0
 62
   251
100
AcDbFaceRecord
 10
0.0
 20
0.0
 30
0.0
 70
   128
 71
    -7
 72
    -6
 73
     5
  0
VERTEX
  5
36F
330
355
100
AcDbEntity
  8
0
 62
   251
100
AcDbFaceRecord
 10
0.0
 20
0.0
 30
0.0
 70
   128
 71
    -8
 72
     7
 73
    -9
  0
VERTEX
  5
370
330
355
100
AcDbEntity
  8
0
 62
   251
100
AcDbFaceRecord
 10
0.0
 20
0.0
 30
0.0
 70
   128
 71
    -8
 72
    10
 73
    11
  0
VERTEX
  5
371
330
355
100
AcDbEntity
  8
0
 62
   251
100
AcDbFaceRecord
 10
0.0
 20
0.0
 30
0.0
 70
   128
 71
   -10
 72
    -8
 73
    -9
  0
VERTEX
  5
372
330
355
100
AcDbEntity
  8
0
 62
   251
100
AcDbFaceRecord
 10
0.0
 20
0.0
 30
0.0
 70
   128
 71
   -10
 72
     9
 73
   -12
  0
VERTEX
  5
373
330
355
100
AcDbEntity
  8
0
 62
   251
100
AcDbFaceRecord
 10
0.0
 20
0.0
 30
0.0
 70
   128
 71
   -10
 72
   -12
 73
    13
  0
VERTEX
  5
374
330
355
100
AcDbEntity
  8
0
 62
   251
100
AcDbFaceRecord
 10
0.0
 20
0.0
 30
0.0
 70
   128
 71
   -13
 72
   -12
 73
    14
  0
VERTEX
  5
375
330
355
100
AcDbEntity
  8
0
 62
   251
100
AcDbFaceRecord
 10
0.0
 20
0.0
 30
0.0
 70
   128
 71
   -14
 72
    12
 73
   -15
  0
VERTEX
  5
376
330
355
100
AcDbEntity
  8
0
 62
   251
100
AcDbFaceRecord
 10
0.0
 20
0.0
 30
0.0
 70
   128
 71
   -14
 72
    15
 73
   -16
  0
VERTEX
  5
377
330
355
100
AcDbEntity
  8
0
 62
   251
100
AcDbFaceRecord
 10
0.0
 20
0.0
 30
0.0
 70
   128
 71
   -14
 72
   -16
 73
    17
  0
VERTEX
  5
378
330
355
100
AcDbEntity
  8
0
 62
   251
100
AcDbFaceRecord
 10
0.0
 20
0.0
 30
0.0
 70
   128
 71
   -17
 72
   -16
 73
    18
  0
VERTEX
  5
379
330
355
100
AcDbEntity
  8
0
 62
   251
100
AcDbFaceRecord
 10
0.0
 20
0.0
 30
0.0
 70
   128
 71
   -18
 72
    16
 73
    19
  0
SEQEND
  5
37A
330
355
100
AcDbEntity
  8
0
 62
   251
  0
LINE
  5
37B
330
74
100
AcDbEntity
  8
0
 62
   178
100
AcDbLine
 10
101.3851357373647
 20
0.0000000000005414
 30
68.22875501692533
 11
101.5268956778496
 21
0.0
 31
68.369939751589
  0
POLYLINE
  5
37D
330
74
100
AcDbEntity
  8
0
 62
   251
100
AcDbPolyFaceMesh
 66
     1
 10
0.0
 20
0.0
 30
0.0
 70
    64
 71
    19
 72
    17
1001
ACAD_MATERIAL_MAPPER
1070
     1
1070
     1
1070
     1
1011
0.0000000000003495
1021
0.0
1031
0.0000000000000218
1011
25.40000000000035
1021
0.0
1031
0.0000000000000205
1011
0.0000000000003495
1021
0.0
1031
25.40000000000001
1011
0.0000000000003495
1021
1.0
1031
0.0000000000000218
  0
VERTEX
  5
37E
330
37D
100
AcDbEntity
  8
0
 62
   251
100
AcDbVertex
100
AcDbPolyFaceMeshVertex
 10
290.621229029043
 20
-0.0000000000000451
 30
19.96263602412133
 70
   192
  0
VERTEX
  5
37F
330
37D
100
AcDbEntity
  8
0
 62
   251
100
AcDbVertex
100
AcDbPolyFaceMeshVertex
 10
217.9043921062091
 20
-0.0000000000001805
 30
20.870253675118
 70
   192
  0
VERTEX
  5
380
330
37D
100
AcDbEntity
  8
0
 62
   251
100
AcDbVertex
100
AcDbPolyFaceMeshVertex
 10
248.3044480010359
 20
0.0000000000001354
 30
17.60475306979154
 70
   192
  0
VERTEX
  5
381
330
37D
100
AcDbEntity
  8
0
 62
   251
100
AcDbVertex
100
AcDbPolyFaceMeshVertex
 10
298.7059469745317
 20
0.0000000000004963
 30
30.17200464521027
 70
   192
  0
VERTEX
  5
382
330
37D
100
AcDbEntity
  8
0
 62
   251
100
AcDbVertex
100
AcDbPolyFaceMeshVertex
 10
190.5367099559684
 20
-0.0000000000001354
 30
38.27437669723535
 70
   192
  0
VERTEX
  5
383
330
37D
100
AcDbEntity
  8
0
 62
   251
100
AcDbVertex
100
AcDbPolyFaceMeshVertex
 10
320.4025297247906
 20
-0.0000000000004512
 30
38.79092737913554
 70
   192
  0
VERTEX
  5
384
330
37D
100
AcDbEntity
  8
0
 62
   251
100
AcDbVertex
100
AcDbPolyFaceMeshVertex
 10
165.2118410386698
 20
-0.0000000000006768
 30
48.546104874809
 70
   192
  0
VERTEX
  5
385
330
37D
100
AcDbEntity
  8
0
 62
   251
100
AcDbVertex
100
AcDbPolyFaceMeshVertex
 10
317.1858255592004
 20
-0.0000000000002256
 30
42.85345095335254
 70
   192
  0
VERTEX
  5
386
330
37D
100
AcDbEntity
  8
0
 62
   251
100
AcDbVertex
100
AcDbPolyFaceMeshVertex
 10
307.8209072589285
 20
0.000000000000361
 30
48.89128902957366
 70
   192
  0
VERTEX
  5
387
330
37D
100
AcDbEntity
  8
0
 62
   251
100
AcDbVertex
100
AcDbPolyFaceMeshVertex
 10
138.8221418142159
 20
0.0000000000004512
 30
52.22906512668776
 70
   192
  0
VERTEX
  5
388
330
37D
100
AcDbEntity
  8
0
 62
   251
100
AcDbVertex
100
AcDbPolyFaceMeshVertex
 10
283.4509219031261
 20
0.0000000000001805
 30
57.80337770350793
 70
   192
  0
VERTEX
  5
389
330
37D
100
AcDbEntity
  8
0
 62
   251
100
AcDbVertex
100
AcDbPolyFaceMeshVertex
 10
109.8204848641633
 20
0.0000000000005414
 30
61.1548480821592
 70
   192
  0
VERTEX
  5
38A
330
37D
100
AcDbEntity
  8
0
 62
   251
100
AcDbVertex
100
AcDbPolyFaceMeshVertex
 10
244.8938986760404
 20
0.000000000000361
 30
87.0149830752964
 70
   192
  0
VERTEX
  5
38B
330
37D
100
AcDbEntity
  8
0
 62
   251
100
AcDbVertex
100
AcDbPolyFaceMeshVertex
 10
101.5268956778496
 20
0.0
 30
68.369939751589
 70
   192
  0
VERTEX
  5
38C
330
37D
100
AcDbEntity
  8
0
 62
   251
100
AcDbVertex
100
AcDbPolyFaceMeshVertex
 10
149.3420278993855
 20
-0.0000000000001805
 30
85.85434274222222
 70
   192
  0
VERTEX
  5
38D
330
37D
100
AcDbEntity
  8
0
 62
   251
100
AcDbVertex
100
AcDbPolyFaceMeshVertex
 10
232.744732316856
 20
0.0000000000001805
 30
91.72157729353846
 70
   192
  0
VERTEX
  5
38E
330
37D
100
AcDbEntity
  8
0
 62
   251
100
AcDbVertex
100
AcDbPolyFaceMeshVertex
 10
238.9143036959152
 20
-0.000000000000361
 30
95.20498072495099
 70
   192
  0
VERTEX
  5
38F
330
37D
100
AcDbEntity
  8
0
 62
   251
100
AcDbVertex
100
AcDbPolyFaceMeshVertex
 10
106.6032886822917
 20
0.0
 30
94.65513763560308
 70
   192
  0
VERTEX
  5
390
330
37D
100
AcDbEntity
  8
0
 62
   251
100
AcDbVertex
100
AcDbPolyFaceMeshVertex
 10
103.8358605662511
 20
0.0
 30
97.62411067286556
 70
   192
  0
VERTEX
  5
391
330
37D
100
AcDbEntity
  8
0
 62
   251
100
AcDbFaceRecord
 10
0.0
 20
0.0
 30
0.0
 70
   128
 71
    -1
 72
     2
 73
     3
  0
VERTEX
  5
392
330
37D
100
AcDbEntity
  8
0
 62
   251
100
AcDbFaceRecord
 10
0.0
 20
0.0
 30
0.0
 70
   128
 71
    -2
 72
     1
 73
    -4
  0
VERTEX
  5
393
330
37D
100
AcDbEntity
  8
0
 62
   251
100
AcDbFaceRecord
 10
0.0
 20
0.0
 30
0.0
 70
   128
 71
    -2
 72
    -4
 73
     5
  0
VERTEX
  5
394
330
37D
100
AcDbEntity
  8
0
 62
   251
100
AcDbFaceRecord
 10
0.0
 20
0.0
 30
0.0
 70
   128
 71
    -5
 72
     4
 73
    -6
  0
VERTEX
  5
395
330
37D
100
AcDbEntity
  8
0
 62
   251
100
AcDbFaceRecord
 10
0.0
 20
0.0
 30
0.0
 70
   128
 71
    -5
 72
    -6
 73
     7
  0
VERTEX
  5
396
330
37D
100
AcDbEntity
  8
0
 62
   251
100
AcDbFaceRecord
 10
0.0
 20
0.0
 30
0.0
 70
   128
 71
    -7
 72
     6
 73
    -8
  0
VERTEX
  5
397
330
37D
100
AcDbEntity
  8
0
 62
   251
100
AcDbFaceRecord
 10
0.0
 20
0.0
 30
0.0
 70
   128
 71
    -7
 72
     8
 73
    -9
  0
VERTEX
  5
398
330
37D
100
AcDbEntity
  8
0
 62
   251
100
AcDbFaceRecord
 10
0.0
 20
0.0
 30
0.0
 70
   128
 71
    -7
 72
    -9
 73
    10
  0
VERTEX
  5
399
330
37D
100
AcDbEntity
  8
0
 62
   251
100
AcDbFaceRecord
 10
0.0
 20
0.0
 30
0.0
 70
   128
 71
   -10
 72
     9
 73
   -11
  0
VERTEX
  5
39A
330
37D
100
AcDbEntity
  8
0
 62
   251
100
AcDbFaceRecord
 10
0.0
 20
0.0
 30
0.0
 70
   128
 71
   -10
 72
   -11
 73
    12
  0
VERTEX
  5
39B
330
37D
100
AcDbEntity
  8
0
 62
   251
100
AcDbFaceRecord
 10
0.0
 20
0.0
 30
0.0
 70
   128
 71
   -12
 72
    11
 73
   -13
  0
VERTEX
  5
39C
330
37D
100
AcDbEntity
  8
0
 62
   251
100
AcDbFaceRecord
 10
0.0
 20
0.0
 30
0.0
 70
   128
 71
   -12
 72
   -13
 73
    14
  0
VERTEX
  5
39D
330
37D
100
AcDbEntity
  8
0
 62
   251
100
AcDbFaceRecord
 10
0.0
 20
0.0
 30
0.0
 70
   128
 71
   -14
 72
   -13
 73
   -15
  0
VERTEX
  5
39E
330
37D
100
AcDbEntity
  8
0
 62
   251
100
AcDbFaceRecord
 10
0.0
 20
0.0
 30
0.0
 70
   128
 71
   -15
 72
   -13
 73
    16
  0
VERTEX
  5
39F
330
37D
100
AcDbEntity
  8
0
 62
   251
100
AcDbFaceRecord
 10
0.0
 20
0.0
 30
0.0
 70
   128
 71
   -16
 72
    13
 73
    17
  0
VERTEX
  5
3A0
330
37D
100
AcDbEntity
  8
0
 62
   251
100
AcDbFaceRecord
 10
0.0
 20
0.0
 30
0.0
 70
   128
 71
   -14
 72
    18
 73
    19
  0
VERTEX
  5
3A1
330
37D
100
AcDbEntity
  8
0
 62
   251
100
AcDbFaceRecord
 10
0.0
 20
0.0
 30
0.0
 70
   128
 71
   -18
 72
   -14
 73
    15
  0
SEQEND
  5
3A2
330
37D
100
AcDbEntity
  8
0
 62
   251
  0
LINE
  5
3A3
330
74
100
AcDbEntity
  8
0
 62
   178
100
AcDbLine
 10
101.5268956778496
 20
0.0
 30
68.369939751589
 11
103.8358605662511
 21
0.0
 31
97.62411067286556
  0
POLYLINE
  5
3A5
330
74
100
AcDbEntity
  8
0
 62
   169
100
AcDbPolyFaceMesh
 66
     1
 10
0.0
 20
0.0
 30
0.0
 70
    64
 71
   141
 72
   139
1001
ACAD_MATERIAL_MAPPER
1070
     1
1070
     1
1070
     1
1011
-0.0000000000004624
1021
0.0
1031
-0.0000000000006937
1011
25.39999999999956
1021
0.0
1031
-0.0000000000006937
1011
-0.0000000000004913
1021
0.0
1031
25.39999999999928
1011
-0.0000000000004624
1021
1.0
1031
-0.0000000000006937
  0
VERTEX
  5
3A6
330
3A5
100
AcDbEntity
  8
0
 62
   169
100
AcDbVertex
100
AcDbPolyFaceMeshVertex
 10
57.72870221943757
 20
-0.0000000000001805
 30
100.3471305859243
 70
   192
  0
VERTEX
  5
3A7
330
3A5
100
AcDbEntity
  8
0
 62
   169
100
AcDbVertex
100
AcDbPolyFaceMeshVertex
 10
44.5451592933715
 20
0.0
 30
98.08606985105737
 70
   192
  0
VERTEX
  5
3A8
330
3A5
100
AcDbEntity
  8
0
 62
   169
100
AcDbVertex
100
AcDbPolyFaceMeshVertex
 10
53.251273620652
 20
0.0
 30
93.56394838132347
 70
   192
  0
VERTEX
  5
3A9
330
3A5
100
AcDbEntity
  8
0
 62
   169
100
AcDbVertex
100
AcDbPolyFaceMeshVertex
 10
35.83898803249603
 20
0.0
 30
102.6083051879784
 70
   192
  0
VERTEX
  5
3AA
330
3A5
100
AcDbEntity
  8
0
 62
   169
100
AcDbVertex
100
AcDbPolyFaceMeshVertex
 10
56.48498786799568
 20
0.000000000000361
 30
112.1551578914438
 70
   192
  0
VERTEX
  5
3AB
330
3A5
100
AcDbEntity
  8
0
 62
   169
100
AcDbVertex
100
AcDbPolyFaceMeshVertex
 10
8.974359506193741
 20
0.0000000000004061
 30
112.4064627734427
 70
   192
  0
VERTEX
  5
3AC
330
3A5
100
AcDbEntity
  8
0
 62
   169
100
AcDbVertex
100
AcDbPolyFaceMeshVertex
 10
57.47995934914854
 20
0.0000000000001805
 30
131.2489771655617
 70
   192
  0
VERTEX
  5
3AD
330
3A5
100
AcDbEntity
  8
0
 62
   169
100
AcDbVertex
100
AcDbPolyFaceMeshVertex
 10
232.744732316856
 20
0.0000000000001805
 30
91.72157729353846
 70
   192
  0
VERTEX
  5
3AE
330
3A5
100
AcDbEntity
  8
0
 62
   169
100
AcDbVertex
100
AcDbPolyFaceMeshVertex
 10
106.6032886822917
 20
0.0
 30
94.65513763560308
 70
   192
  0
VERTEX
  5
3AF
330
3A5
100
AcDbEntity
  8
0
 62
   169
100
AcDbVertex
100
AcDbPolyFaceMeshVertex
 10
149.3420278993855
 20
-0.0000000000001805
 30
85.85434274222222
 70
   192
  0
VERTEX
  5
3B0
330
3A5
100
AcDbEntity
  8
0
 62
   169
100
AcDbVertex
100
AcDbPolyFaceMeshVertex
 10
238.9143036959152
 20
-0.000000000000361
 30
95.20498072495099
 70
   192
  0
VERTEX
  5
3B1
330
3A5
100
AcDbEntity
  8
0
 62
   169
100
AcDbVertex
100
AcDbPolyFaceMeshVertex
 10
103.8358605662511
 20
0.0
 30
97.62411067286556
 70
   192
  0
VERTEX
  5
3B2
330
3A5
100
AcDbEntity
  8
0
 62
   169
100
AcDbVertex
100
AcDbPolyFaceMeshVertex
 10
244.3261008947293
 20
-0.0000000000001354
 30
98.40488048102647
 70
   192
  0
VERTEX
  5
3B3
330
3A5
100
AcDbEntity
  8
0
 62
   169
100
AcDbVertex
100
AcDbPolyFaceMeshVertex
 10
98.71946624687996
 20
0.0000000000001805
 30
103.4561602633582
 70
   192
  0
VERTEX
  5
3B4
330
3A5
100
AcDbEntity
  8
0
 62
   169
100
AcDbVertex
100
AcDbPolyFaceMeshVertex
 10
244.3630568886145
 20
-0.0000000000003158
 30
98.42698820932858
 70
   192
  0
VERTEX
  5
3B5
330
3A5
100
AcDbEntity
  8
0
 62
   169
100
AcDbVertex
100
AcDbPolyFaceMeshVertex
 10
240.6454640295561
 20
0.0
 30
151.2652345226307
 70
   192
  0
VERTEX
  5
3B6
330
3A5
100
AcDbEntity
  8
0
 62
   169
100
AcDbVertex
100
AcDbPolyFaceMeshVertex
 10
100.7941263964125
 20
0.000000000000361
 30
113.095131521213
 70
   192
  0
VERTEX
  5
3B7
330
3A5
100
AcDbEntity
  8
0
 62
   169
100
AcDbVertex
100
AcDbPolyFaceMeshVertex
 10
100.7941263964125
 20
-0.0000000000001354
 30
144.5268021225725
 70
   192
  0
VERTEX
  5
3B8
330
3A5
100
AcDbEntity
  8
0
 62
   169
100
AcDbVertex
100
AcDbPolyFaceMeshVertex
 10
92.601610016687
 20
0.0000000000005414
 30
182.2833395003293
 70
   192
  0
VERTEX
  5
3B9
330
3A5
100
AcDbEntity
  8
0
 62
   169
100
AcDbVertex
100
AcDbPolyFaceMeshVertex
 10
207.8032636476071
 20
-0.0000000000001354
 30
195.8876216828456
 70
   192
  0
VERTEX
  5
3BA
330
3A5
100
AcDbEntity
  8
0
 62
   169
100
AcDbVertex
100
AcDbPolyFaceMeshVertex
 10
102.0389794197258
 20
0.0000000000001805
 30
237.1452334633296
 70
   192
  0
VERTEX
  5
3BB
330
3A5
100
AcDbEntity
  8
0
 62
   169
100
AcDbVertex
100
AcDbPolyFaceMeshVertex
 10
219.9236286474274
 20
-0.0000000000001354
 30
231.4275065287166
 70
   192
  0
VERTEX
  5
3BC
330
3A5
100
AcDbEntity
  8
0
 62
   169
100
AcDbVertex
100
AcDbPolyFaceMeshVertex
 10
226.17926417405
 20
-0.0000000000004963
 30
261.8339169771456
 70
   192
  0
VERTEX
  5
3BD
330
3A5
100
AcDbEntity
  8
0
 62
   169
100
AcDbVertex
100
AcDbPolyFaceMeshVertex
 10
110.3377338850436
 20
-0.000000000000361
 30
318.4484546844714
 70
   192
  0
VERTEX
  5
3BE
330
3A5
100
AcDbEntity
  8
0
 62
   169
100
AcDbVertex
100
AcDbPolyFaceMeshVertex
 10
228.9025687550769
 20
-0.0000000000005866
 30
308.6836601848365
 70
   192
  0
VERTEX
  5
3BF
330
3A5
100
AcDbEntity
  8
0
 62
   169
100
AcDbVertex
100
AcDbPolyFaceMeshVertex
 10
234.3668273311329
 20
-0.0000000000005866
 30
433.8939548966341
 70
   192
  0
VERTEX
  5
3C0
330
3A5
100
AcDbEntity
  8
0
 62
   169
100
AcDbVertex
100
AcDbPolyFaceMeshVertex
 10
114.7973422690432
 20
-0.0000000000001354
 30
381.4701851444902
 70
   192
  0
VERTEX
  5
3C1
330
3A5
100
AcDbEntity
  8
0
 62
   169
100
AcDbVertex
100
AcDbPolyFaceMeshVertex
 10
114.7973422690432
 20
-0.0000000000001354
 30
412.3234104352226
 70
   192
  0
VERTEX
  5
3C2
330
3A5
100
AcDbEntity
  8
0
 62
   169
100
AcDbVertex
100
AcDbPolyFaceMeshVertex
 10
118.8035884474787
 20
-0.0000000000003158
 30
431.0375965074445
 70
   192
  0
VERTEX
  5
3C3
330
3A5
100
AcDbEntity
  8
0
 62
   169
100
AcDbVertex
100
AcDbPolyFaceMeshVertex
 10
100.2746642887196
 20
-0.0000000000004512
 30
487.6859527693485
 70
   192
  0
VERTEX
  5
3C4
330
3A5
100
AcDbEntity
  8
0
 62
   169
100
AcDbVertex
100
AcDbPolyFaceMeshVertex
 10
232.5452939385956
 20
-0.000000000000361
 30
443.4893150218177
 70
   192
  0
VERTEX
  5
3C5
330
3A5
100
AcDbEntity
  8
0
 62
   169
100
AcDbVertex
100
AcDbPolyFaceMeshVertex
 10
234.0973036991949
 20
-0.0000000000002707
 30
524.7233049931839
 70
   192
  0
VERTEX
  5
3C6
330
3A5
100
AcDbEntity
  8
0
 62
   169
100
AcDbVertex
100
AcDbPolyFaceMeshVertex
 10
96.85005170215055
 20
-0.0000000000004963
 30
527.544706155924
 70
   192
  0
VERTEX
  5
3C7
330
3A5
100
AcDbEntity
  8
0
 62
   169
100
AcDbVertex
100
AcDbPolyFaceMeshVertex
 10
220.2126805019601
 20
-0.0000000000001805
 30
628.0544751664439
 70
   192
  0
VERTEX
  5
3C8
330
3A5
100
AcDbEntity
  8
0
 62
   169
100
AcDbVertex
100
AcDbPolyFaceMeshVertex
 10
64.16305229626091
 20
-0.0000000000007219
 30
633.5609784689282
 70
   192
  0
VERTEX
  5
3C9
330
3A5
100
AcDbEntity
  8
0
 62
   169
100
AcDbVertex
100
AcDbPolyFaceMeshVertex
 10
154.5038607241622
 20
0.000000000000361
 30
652.8217191421379
 70
   192
  0
VERTEX
  5
3CA
330
3A5
100
AcDbEntity
  8
0
 62
   169
100
AcDbVertex
100
AcDbPolyFaceMeshVertex
 10
174.637025453645
 20
0.0000000000001805
 30
659.9307298302607
 70
   192
  0
VERTEX
  5
3CB
330
3A5
100
AcDbEntity
  8
0
 62
   169
100
AcDbVertex
100
AcDbPolyFaceMeshVertex
 10
193.7808738094329
 20
0.0000000000007219
 30
682.7683718960108
 70
   192
  0
VERTEX
  5
3CC
330
3A5
100
AcDbEntity
  8
0
 62
   169
100
AcDbVertex
100
AcDbPolyFaceMeshVertex
 10
199.490313152105
 20
0.0000000000009475
 30
712.3231031633786
 70
   192
  0
VERTEX
  5
3CD
330
3A5
100
AcDbEntity
  8
0
 62
   169
100
AcDbVertex
100
AcDbPolyFaceMeshVertex
 10
199.9376963141021
 20
0.0000000000009024
 30
728.0585375323859
 70
   192
  0
VERTEX
  5
3CE
330
3A5
100
AcDbEntity
  8
0
 62
   169
100
AcDbVertex
100
AcDbPolyFaceMeshVertex
 10
195.2719972761852
 20
0.0000000000009024
 30
773.0883730716871
 70
   192
  0
VERTEX
  5
3CF
330
3A5
100
AcDbEntity
  8
0
 62
   169
100
AcDbVertex
100
AcDbPolyFaceMeshVertex
 10
159.2055349029508
 20
0.000000000000361
 30
655.8440921942852
 70
   192
  0
VERTEX
  5
3D0
330
3A5
100
AcDbEntity
  8
0
 62
   169
100
AcDbVertex
100
AcDbPolyFaceMeshVertex
 10
177.9956277069273
 20
-0.0000000000003158
 30
664.968402600302
 70
   192
  0
VERTEX
  5
3D1
330
3A5
100
AcDbEntity
  8
0
 62
   169
100
AcDbVertex
100
AcDbPolyFaceMeshVertex
 10
189.4145063922736
 20
0.000000000000361
 30
680.4173041967404
 70
   192
  0
VERTEX
  5
3D2
330
3A5
100
AcDbEntity
  8
0
 62
   169
100
AcDbVertex
100
AcDbPolyFaceMeshVertex
 10
195.2719972761855
 20
0.0000000000019853
 30
770.1079425627939
 70
   192
  0
VERTEX
  5
3D3
330
3A5
100
AcDbEntity
  8
0
 62
   169
100
AcDbVertex
100
AcDbPolyFaceMeshVertex
 10
136.3677775322562
 20
0.0000000000000451
 30
713.9462507848915
 70
   192
  0
VERTEX
  5
3D4
330
3A5
100
AcDbEntity
  8
0
 62
   169
100
AcDbVertex
100
AcDbPolyFaceMeshVertex
 10
118.5674623217309
 20
-0.000000000000361
 30
719.3200374511255
 70
   192
  0
VERTEX
  5
3D5
330
3A5
100
AcDbEntity
  8
0
 62
   169
100
AcDbVertex
100
AcDbPolyFaceMeshVertex
 10
110.8434150907978
 20
0.000000000000361
 30
715.2896686252151
 70
   192
  0
VERTEX
  5
3D6
330
3A5
100
AcDbEntity
  8
0
 62
   169
100
AcDbVertex
100
AcDbPolyFaceMeshVertex
 10
141.7414488935484
 20
0.0000000000000451
 30
734.7688237426247
 70
   192
  0
VERTEX
  5
3D7
330
3A5
100
AcDbEntity
  8
0
 62
   169
100
AcDbVertex
100
AcDbPolyFaceMeshVertex
 10
125.9566640107978
 20
0.0000000000014438
 30
734.4332863711256
 70
   192
  0
VERTEX
  5
3D8
330
3A5
100
AcDbEntity
  8
0
 62
   169
100
AcDbVertex
100
AcDbPolyFaceMeshVertex
 10
129.3148050443256
 20
0.0000000000009475
 30
748.8747687184933
 70
   192
  0
VERTEX
  5
3D9
330
3A5
100
AcDbEntity
  8
0
 62
   169
100
AcDbVertex
100
AcDbPolyFaceMeshVertex
 10
142.0769862650546
 20
0.000000000000361
 30
752.5689083432725
 70
   192
  0
VERTEX
  5
3DA
330
3A5
100
AcDbEntity
  8
0
 62
   169
100
AcDbVertex
100
AcDbPolyFaceMeshVertex
 10
134.0169404428591
 20
-0.0000000000000451
 30
761.9727179206008
 70
   192
  0
VERTEX
  5
3DB
330
3A5
100
AcDbEntity
  8
0
 62
   169
100
AcDbVertex
100
AcDbPolyFaceMeshVertex
 10
138.0470786588907
 20
0.0000000000012633
 30
764.9953215826253
 70
   192
  0
VERTEX
  5
3DC
330
3A5
100
AcDbEntity
  8
0
 62
   169
100
AcDbVertex
100
AcDbPolyFaceMeshVertex
 10
151.1849233697789
 20
0.0000000000004061
 30
858.59237596553
 70
   192
  0
VERTEX
  5
3DD
330
3A5
100
AcDbEntity
  8
0
 62
   169
100
AcDbVertex
100
AcDbPolyFaceMeshVertex
 10
106.9378062085172
 20
0.0
 30
860.0893799841482
 70
   192
  0
VERTEX
  5
3DE
330
3A5
100
AcDbEntity
  8
0
 62
   169
100
AcDbVertex
100
AcDbPolyFaceMeshVertex
 10
29.8292427490087
 20
0.0000000000003158
 30
858.6060972532312
 70
   192
  0
VERTEX
  5
3DF
330
3A5
100
AcDbEntity
  8
0
 62
   169
100
AcDbVertex
100
AcDbPolyFaceMeshVertex
 10
151.7005670554659
 20
0.0000000000000451
 30
864.4942592508253
 70
   192
  0
VERTEX
  5
3E0
330
3A5
100
AcDbEntity
  8
0
 62
   169
100
AcDbVertex
100
AcDbPolyFaceMeshVertex
 10
148.1224241989772
 20
0.0000000000002256
 30
654.8366729452149
 70
   192
  0
VERTEX
  5
3E1
330
3A5
100
AcDbEntity
  8
0
 62
   169
100
AcDbVertex
100
AcDbPolyFaceMeshVertex
 10
21.07929550215852
 20
-0.0000000000006317
 30
730.337270147786
 70
   192
  0
VERTEX
  5
3E2
330
3A5
100
AcDbEntity
  8
0
 62
   169
100
AcDbVertex
100
AcDbPolyFaceMeshVertex
 10
123.9415949027825
 20
0.0000000000013085
 30
674.3158280626254
 70
   192
  0
VERTEX
  5
3E3
330
3A5
100
AcDbEntity
  8
0
 62
   169
100
AcDbVertex
100
AcDbPolyFaceMeshVertex
 10
146.1073550909592
 20
0.0000000000014889
 30
662.8972952920969
 70
   192
  0
VERTEX
  5
3E4
330
3A5
100
AcDbEntity
  8
0
 62
   169
100
AcDbVertex
100
AcDbPolyFaceMeshVertex
 10
119.9109954669966
 20
0.0000000000005414
 30
677.0026637432727
 70
   192
  0
VERTEX
  5
3E5
330
3A5
100
AcDbEntity
  8
0
 62
   169
100
AcDbVertex
100
AcDbPolyFaceMeshVertex
 10
120.2467634483735
 20
0.0000000000001805
 30
685.0631707852164
 70
   192
  0
VERTEX
  5
3E6
330
3A5
100
AcDbEntity
  8
0
 62
   169
100
AcDbVertex
100
AcDbPolyFaceMeshVertex
 10
104.1262105842402
 20
0.0000000000010829
 30
716.2970878742849
 70
   192
  0
VERTEX
  5
3E7
330
3A5
100
AcDbEntity
  8
0
 62
   169
100
AcDbVertex
100
AcDbPolyFaceMeshVertex
 10
102.7826774389849
 20
0.0000000000009024
 30
721.67064393064
 70
   192
  0
VERTEX
  5
3E8
330
3A5
100
AcDbEntity
  8
0
 62
   169
100
AcDbVertex
100
AcDbPolyFaceMeshVertex
 10
107.1490448561424
 20
0.0000000000005866
 30
747.8671188595472
 70
   192
  0
VERTEX
  5
3E9
330
3A5
100
AcDbEntity
  8
0
 62
   169
100
AcDbVertex
100
AcDbPolyFaceMeshVertex
 10
3.181594095261914
 20
-0.0000000000006768
 30
751.3294831657576
 70
   192
  0
VERTEX
  5
3EA
330
3A5
100
AcDbEntity
  8
0
 62
   169
100
AcDbVertex
100
AcDbPolyFaceMeshVertex
 10
115.1618156534792
 20
0.0000000000018499
 30
772.8170320966035
 70
   192
  0
VERTEX
  5
3EB
330
3A5
100
AcDbEntity
  8
0
 62
   169
100
AcDbVertex
100
AcDbPolyFaceMeshVertex
 10
-4.323904610906823
 20
-0.0000000000007219
 30
757.7438495512397
 70
   192
  0
VERTEX
  5
3EC
330
3A5
100
AcDbEntity
  8
0
 62
   169
100
AcDbVertex
100
AcDbPolyFaceMeshVertex
 10
-147.5593340331891
 20
0.0000000000010829
 30
772.2292075193155
 70
   192
  0
VERTEX
  5
3ED
330
3A5
100
AcDbEntity
  8
0
 62
   169
100
AcDbVertex
100
AcDbPolyFaceMeshVertex
 10
-153.604771967116
 20
0.0000000000002256
 30
801.1121722140538
 70
   192
  0
VERTEX
  5
3EE
330
3A5
100
AcDbEntity
  8
0
 62
   169
100
AcDbVertex
100
AcDbPolyFaceMeshVertex
 10
129.8318323892746
 20
0.000000000000361
 30
813.5144867212255
 70
   192
  0
VERTEX
  5
3EF
330
3A5
100
AcDbEntity
  8
0
 62
   169
100
AcDbVertex
100
AcDbPolyFaceMeshVertex
 10
-170.0864598991235
 20
0.0
 30
826.8400478722464
 70
   192
  0
VERTEX
  5
3F0
330
3A5
100
AcDbEntity
  8
0
 62
   169
100
AcDbVertex
100
AcDbPolyFaceMeshVertex
 10
142.4627965898083
 20
0.0000000000004061
 30
827.6285030428013
 70
   192
  0
VERTEX
  5
3F1
330
3A5
100
AcDbEntity
  8
0
 62
   169
100
AcDbVertex
100
AcDbPolyFaceMeshVertex
 10
-166.7145975779027
 20
0.000000000000767
 30
828.0203092243672
 70
   192
  0
VERTEX
  5
3F2
330
3A5
100
AcDbEntity
  8
0
 62
   169
100
AcDbVertex
100
AcDbPolyFaceMeshVertex
 10
-168.9040077531731
 20
0.0000000000004061
 30
835.0253148578189
 70
   192
  0
VERTEX
  5
3F3
330
3A5
100
AcDbEntity
  8
0
 62
   169
100
AcDbVertex
100
AcDbPolyFaceMeshVertex
 10
-174.2581925798347
 20
0.000000000000361
 30
842.4518753470111
 70
   192
  0
VERTEX
  5
3F4
330
3A5
100
AcDbEntity
  8
0
 62
   169
100
AcDbVertex
100
AcDbPolyFaceMeshVertex
 10
-72.48774762003927
 20
0.0000000000006317
 30
870.4691305622919
 70
   192
  0
VERTEX
  5
3F5
330
3A5
100
AcDbEntity
  8
0
 62
   169
100
AcDbVertex
100
AcDbPolyFaceMeshVertex
 10
-134.7680959679154
 20
0.0000000000005866
 30
882.3319332614758
 70
   192
  0
VERTEX
  5
3F6
330
3A5
100
AcDbEntity
  8
0
 62
   169
100
AcDbVertex
100
AcDbPolyFaceMeshVertex
 10
-173.1054891080531
 20
0.0000000000004512
 30
894.22909683238
 70
   192
  0
VERTEX
  5
3F7
330
3A5
100
AcDbEntity
  8
0
 62
   169
100
AcDbVertex
100
AcDbPolyFaceMeshVertex
 10
-171.8134972703723
 20
0.0000000000006317
 30
834.1666389796212
 70
   192
  0
VERTEX
  5
3F8
330
3A5
100
AcDbEntity
  8
0
 62
   169
100
AcDbVertex
100
AcDbPolyFaceMeshVertex
 10
-17.63613588960844
 20
-0.000000000000361
 30
664.3823267265315
 70
   192
  0
VERTEX
  5
3F9
330
3A5
100
AcDbEntity
  8
0
 62
   169
100
AcDbVertex
100
AcDbPolyFaceMeshVertex
 10
-143.6803496781007
 20
0.0000000000002256
 30
687.6728760030056
 70
   192
  0
VERTEX
  5
3FA
330
3A5
100
AcDbEntity
  8
0
 62
   169
100
AcDbVertex
100
AcDbPolyFaceMeshVertex
 10
-143.9530567716663
 20
0.0000000000004061
 30
687.5807388159105
 70
   192
  0
VERTEX
  5
3FB
330
3A5
100
AcDbEntity
  8
0
 62
   169
100
AcDbVertex
100
AcDbPolyFaceMeshVertex
 10
-143.1395144730993
 20
0.0000000000004061
 30
687.9198036644221
 70
   192
  0
VERTEX
  5
3FC
330
3A5
100
AcDbEntity
  8
0
 62
   169
100
AcDbVertex
100
AcDbPolyFaceMeshVertex
 10
-142.4107122888338
 20
0.0000000000009926
 30
688.2772959503541
 70
   192
  0
VERTEX
  5
3FD
330
3A5
100
AcDbEntity
  8
0
 62
   169
100
AcDbVertex
100
AcDbPolyFaceMeshVertex
 10
-141.5741042574744
 20
0.0000000000004512
 30
688.701127010994
 70
   192
  0
VERTEX
  5
3FE
330
3A5
100
AcDbEntity
  8
0
 62
   169
100
AcDbVertex
100
AcDbPolyFaceMeshVertex
 10
-140.7098515111967
 20
0.0000000000005414
 30
689.1470709965367
 70
   192
  0
VERTEX
  5
3FF
330
3A5
100
AcDbEntity
  8
0
 62
   169
100
AcDbVertex
100
AcDbPolyFaceMeshVertex
 10
-139.89811518216
 20
0.0000000000005414
 30
689.5709020571762
 70
   192
  0
VERTEX
  5
400
330
3A5
100
AcDbEntity
  8
0
 62
   169
100
AcDbVertex
100
AcDbPolyFaceMeshVertex
 10
-139.2190564025454
 20
0.0000000000010829
 30
689.9283943431071
 70
   192
  0
VERTEX
  5
401
330
3A5
100
AcDbEntity
  8
0
 62
   169
100
AcDbVertex
100
AcDbPolyFaceMeshVertex
 10
-138.752836304518
 20
0.000000000001128
 30
690.175322004524
 70
   192
  0
VERTEX
  5
402
330
3A5
100
AcDbEntity
  8
0
 62
   169
100
AcDbVertex
100
AcDbPolyFaceMeshVertex
 10
-138.5796160202488
 20
0.0000000000001805
 30
690.2674591916194
 70
   192
  0
VERTEX
  5
403
330
3A5
100
AcDbEntity
  8
0
 62
   169
100
AcDbVertex
100
AcDbPolyFaceMeshVertex
 10
-12.98407352818028
 20
-0.000000000000361
 30
757.160621818753
 70
   192
  0
VERTEX
  5
404
330
3A5
100
AcDbEntity
  8
0
 62
   169
100
AcDbVertex
100
AcDbPolyFaceMeshVertex
 10
-137.2360828749856
 20
0.0000000000001805
 30
695.3051319616605
 70
   192
  0
VERTEX
  5
405
330
3A5
100
AcDbEntity
  8
0
 62
   169
100
AcDbVertex
100
AcDbPolyFaceMeshVertex
 10
-137.5611572181718
 20
0.0000000000005866
 30
695.8666461454713
 70
   192
  0
VERTEX
  5
406
330
3A5
100
AcDbEntity
  8
0
 62
   169
100
AcDbVertex
100
AcDbPolyFaceMeshVertex
 10
-140.9304531096428
 20
0.0000000000009024
 30
701.6865684868403
 70
   192
  0
VERTEX
  5
407
330
3A5
100
AcDbEntity
  8
0
 62
   169
100
AcDbVertex
100
AcDbPolyFaceMeshVertex
 10
-148.9907295417063
 20
0.0000000000010829
 30
704.7089415389892
 70
   192
  0
VERTEX
  5
408
330
3A5
100
AcDbEntity
  8
0
 62
   169
100
AcDbVertex
100
AcDbPolyFaceMeshVertex
 10
-143.8647331886529
 20
0.0000000000009926
 30
708.7534928723538
 70
   192
  0
VERTEX
  5
409
330
3A5
100
AcDbEntity
  8
0
 62
   169
100
AcDbVertex
100
AcDbPolyFaceMeshVertex
 10
-140.1705935638709
 20
0.0000000000011731
 30
713.1196296796408
 70
   192
  0
VERTEX
  5
40A
330
3A5
100
AcDbEntity
  8
0
 62
   169
100
AcDbVertex
100
AcDbPolyFaceMeshVertex
 10
-143.1934278357803
 20
0.0000000000009475
 30
723.8667417923525
 70
   192
  0
VERTEX
  5
40B
330
3A5
100
AcDbEntity
  8
0
 62
   169
100
AcDbVertex
100
AcDbPolyFaceMeshVertex
 10
-143.1934278357803
 20
0.0000000000009475
 30
742.6744762519471
 70
   192
  0
VERTEX
  5
40C
330
3A5
100
AcDbEntity
  8
0
 62
   169
100
AcDbVertex
100
AcDbPolyFaceMeshVertex
 10
-149.9104017324574
 20
0.0000000000009475
 30
709.4250288351078
 70
   192
  0
VERTEX
  5
40D
330
3A5
100
AcDbEntity
  8
0
 62
   169
100
AcDbVertex
100
AcDbPolyFaceMeshVertex
 10
-155.619610465251
 20
0.000000000000767
 30
714.1270489287098
 70
   192
  0
VERTEX
  5
40E
330
3A5
100
AcDbEntity
  8
0
 62
   169
100
AcDbVertex
100
AcDbPolyFaceMeshVertex
 10
184.9226872018432
 20
0.0000000000005866
 30
684.7602647113564
 70
   192
  0
VERTEX
  5
40F
330
3A5
100
AcDbEntity
  8
0
 62
   169
100
AcDbVertex
100
AcDbPolyFaceMeshVertex
 10
165.9052130588275
 20
0.0000000000001805
 30
661.9454530234617
 70
   192
  0
VERTEX
  5
410
330
3A5
100
AcDbEntity
  8
0
 62
   169
100
AcDbVertex
100
AcDbPolyFaceMeshVertex
 10
165.1843265823319
 20
0.0000000000001354
 30
669.2474841789009
 70
   192
  0
VERTEX
  5
411
330
3A5
100
AcDbEntity
  8
0
 62
   169
100
AcDbVertex
100
AcDbPolyFaceMeshVertex
 10
170.6068872376107
 20
0.0000000000001805
 30
659.9307298302607
 70
   192
  0
VERTEX
  5
412
330
3A5
100
AcDbEntity
  8
0
 62
   169
100
AcDbVertex
100
AcDbPolyFaceMeshVertex
 10
148.793960161739
 20
-0.0000000000000902
 30
675.3232473116942
 70
   192
  0
VERTEX
  5
413
330
3A5
100
AcDbEntity
  8
0
 62
   169
100
AcDbVertex
100
AcDbPolyFaceMeshVertex
 10
128.3075011001895
 20
0.000000000000361
 30
674.9875946352565
 70
   192
  0
VERTEX
  5
414
330
3A5
100
AcDbEntity
  8
0
 62
   169
100
AcDbVertex
100
AcDbPolyFaceMeshVertex
 10
152.8245595975192
 20
0.0000000000007219
 30
702.863255385863
 70
   192
  0
VERTEX
  5
415
330
3A5
100
AcDbEntity
  8
0
 62
   169
100
AcDbVertex
100
AcDbPolyFaceMeshVertex
 10
159.7094174848868
 20
0.0000000000001805
 30
704.8782091889409
 70
   192
  0
VERTEX
  5
416
330
3A5
100
AcDbEntity
  8
0
 62
   169
100
AcDbVertex
100
AcDbPolyFaceMeshVertex
 10
159.7094174848868
 20
0.0000000000001805
 30
722.1745265125835
 70
   192
  0
VERTEX
  5
417
330
3A5
100
AcDbEntity
  8
0
 62
   169
100
AcDbVertex
100
AcDbPolyFaceMeshVertex
 10
-50.20833873969127
 20
0.0000000000002256
 30
97.7530083286982
 70
   192
  0
VERTEX
  5
418
330
3A5
100
AcDbEntity
  8
0
 62
   169
100
AcDbVertex
100
AcDbPolyFaceMeshVertex
 10
-73.71103856594148
 20
0.0000000000002256
 30
142.5038376759973
 70
   192
  0
VERTEX
  5
419
330
3A5
100
AcDbEntity
  8
0
 62
   169
100
AcDbVertex
100
AcDbPolyFaceMeshVertex
 10
-63.11581067055758
 20
0.0000000000000902
 30
91.94988100373678
 70
   192
  0
VERTEX
  5
41A
330
3A5
100
AcDbEntity
  8
0
 62
   169
100
AcDbVertex
100
AcDbPolyFaceMeshVertex
 10
-17.89026902010854
 20
0.0000000000002256
 30
109.8940971565768
 70
   192
  0
VERTEX
  5
41B
330
3A5
100
AcDbEntity
  8
0
 62
   169
100
AcDbVertex
100
AcDbPolyFaceMeshVertex
 10
64.4448735844118
 20
-0.0000000000001805
 30
148.835308749248
 70
   192
  0
VERTEX
  5
41C
330
3A5
100
AcDbEntity
  8
0
 62
   169
100
AcDbVertex
100
AcDbPolyFaceMeshVertex
 10
-66.76935323685335
 20
0.0000000000000451
 30
172.3935188292242
 70
   192
  0
VERTEX
  5
41D
330
3A5
100
AcDbEntity
  8
0
 62
   169
100
AcDbVertex
100
AcDbPolyFaceMeshVertex
 10
65.06220453944353
 20
-0.0000000000001805
 30
160.4838081255965
 70
   192
  0
VERTEX
  5
41E
330
3A5
100
AcDbEntity
  8
0
 62
   169
100
AcDbVertex
100
AcDbPolyFaceMeshVertex
 10
27.81425495300863
 20
-0.0000000000001354
 30
358.551908656192
 70
   192
  0
VERTEX
  5
41F
330
3A5
100
AcDbEntity
  8
0
 62
   169
100
AcDbVertex
100
AcDbPolyFaceMeshVertex
 10
-70.78823867306096
 20
0.0000000000001805
 30
196.3788447281302
 70
   192
  0
VERTEX
  5
420
330
3A5
100
AcDbEntity
  8
0
 62
   169
100
AcDbVertex
100
AcDbPolyFaceMeshVertex
 10
-106.4558825028938
 20
-0.0000000000002707
 30
380.0426322194247
 70
   192
  0
VERTEX
  5
421
330
3A5
100
AcDbEntity
  8
0
 62
   169
100
AcDbVertex
100
AcDbPolyFaceMeshVertex
 10
10.36815081027462
 20
-0.0000000000004963
 30
400.2591819586576
 70
   192
  0
VERTEX
  5
422
330
3A5
100
AcDbEntity
  8
0
 62
   169
100
AcDbVertex
100
AcDbPolyFaceMeshVertex
 10
-108.4100711684413
 20
-0.0000000000001805
 30
401.753347188195
 70
   192
  0
VERTEX
  5
423
330
3A5
100
AcDbEntity
  8
0
 62
   169
100
AcDbVertex
100
AcDbPolyFaceMeshVertex
 10
6.063914203116428
 20
-0.0000000000005414
 30
439.3848583944816
 70
   192
  0
VERTEX
  5
424
330
3A5
100
AcDbEntity
  8
0
 62
   169
100
AcDbVertex
100
AcDbPolyFaceMeshVertex
 10
-115.4450137237898
 20
-0.0000000000005414
 30
423.4640621569652
 70
   192
  0
VERTEX
  5
425
330
3A5
100
AcDbEntity
  8
0
 62
   169
100
AcDbVertex
100
AcDbPolyFaceMeshVertex
 10
-116.2267119634463
 20
0.0000000000000451
 30
438.4642421865247
 70
   192
  0
VERTEX
  5
426
330
3A5
100
AcDbEntity
  8
0
 62
   169
100
AcDbVertex
100
AcDbPolyFaceMeshVertex
 10
-126.966494252893
 20
-0.0000000000001354
 30
472.8134178565634
 70
   192
  0
VERTEX
  5
427
330
3A5
100
AcDbEntity
  8
0
 62
   169
100
AcDbVertex
100
AcDbPolyFaceMeshVertex
 10
-2.15331135621584
 20
-0.0000000000001805
 30
460.7261882081979
 70
   192
  0
VERTEX
  5
428
330
3A5
100
AcDbEntity
  8
0
 62
   169
100
AcDbVertex
100
AcDbPolyFaceMeshVertex
 10
-0.1968453469253973
 20
-0.0000000000001354
 30
498.6662794916103
 70
   192
  0
VERTEX
  5
429
330
3A5
100
AcDbEntity
  8
0
 62
   169
100
AcDbVertex
100
AcDbPolyFaceMeshVertex
 10
-131.7776106435664
 20
-0.0000000000001805
 30
534.040145978644
 70
   192
  0
VERTEX
  5
42A
330
3A5
100
AcDbEntity
  8
0
 62
   169
100
AcDbVertex
100
AcDbPolyFaceMeshVertex
 10
-4.830613593641078
 20
-0.0000000000007219
 30
544.3881682107655
 70
   192
  0
VERTEX
  5
42B
330
3A5
100
AcDbEntity
  8
0
 62
   169
100
AcDbVertex
100
AcDbPolyFaceMeshVertex
 10
-141.2206164723682
 20
-0.0000000000005866
 30
570.0020226200238
 70
   192
  0
VERTEX
  5
42C
330
3A5
100
AcDbEntity
  8
0
 62
   169
100
AcDbVertex
100
AcDbPolyFaceMeshVertex
 10
-13.56143710052996
 20
-0.000000000000361
 30
590.3885760696437
 70
   192
  0
VERTEX
  5
42D
330
3A5
100
AcDbEntity
  8
0
 62
   169
100
AcDbVertex
100
AcDbPolyFaceMeshVertex
 10
-147.4521690889106
 20
-0.0000000000002707
 30
623.2137533071166
 70
   192
  0
VERTEX
  5
42E
330
3A5
100
AcDbEntity
  8
0
 62
   169
100
AcDbVertex
100
AcDbPolyFaceMeshVertex
 10
-13.56143710052996
 20
-0.000000000000361
 30
609.048333626417
 70
   192
  0
VERTEX
  5
42F
330
3A5
100
AcDbEntity
  8
0
 62
   169
100
AcDbVertex
100
AcDbPolyFaceMeshVertex
 10
-17.60286823978845
 20
-0.0000000000007219
 30
661.529150839314
 70
   192
  0
VERTEX
  5
430
330
3A5
100
AcDbEntity
  8
0
 62
   169
100
AcDbVertex
100
AcDbPolyFaceMeshVertex
 10
-161.6736597802978
 20
0.0000000000004512
 30
690.4010205225347
 70
   192
  0
VERTEX
  5
431
330
3A5
100
AcDbEntity
  8
0
 62
   169
100
AcDbVertex
100
AcDbPolyFaceMeshVertex
 10
-153.3570969588693
 20
0.0000000000002256
 30
690.2674591916194
 70
   192
  0
VERTEX
  5
432
330
3A5
100
AcDbEntity
  8
0
 62
   169
100
AcDbVertex
100
AcDbPolyFaceMeshVertex
 10
-156.4721751817011
 20
0.0000000000009024
 30
692.1272125472608
 70
   192
  0
VERTEX
  5
433
330
3A5
100
AcDbEntity
  8
0
 62
   169
100
AcDbFaceRecord
 10
0.0
 20
0.0
 30
0.0
 70
   128
 71
    -1
 72
     2
 73
     3
  0
VERTEX
  5
434
330
3A5
100
AcDbEntity
  8
0
 62
   169
100
AcDbFaceRecord
 10
0.0
 20
0.0
 30
0.0
 70
   128
 71
    -2
 72
    -1
 73
     4
  0
VERTEX
  5
435
330
3A5
100
AcDbEntity
  8
0
 62
   169
100
AcDbFaceRecord
 10
0.0
 20
0.0
 30
0.0
 70
   128
 71
    -4
 72
     1
 73
    -5
  0
VERTEX
  5
436
330
3A5
100
AcDbEntity
  8
0
 62
   169
100
AcDbFaceRecord
 10
0.0
 20
0.0
 30
0.0
 70
   128
 71
    -4
 72
    -5
 73
     6
  0
VERTEX
  5
437
330
3A5
100
AcDbEntity
  8
0
 62
   169
100
AcDbFaceRecord
 10
0.0
 20
0.0
 30
0.0
 70
   128
 71
    -6
 72
     5
 73
    -7
  0
VERTEX
  5
438
330
3A5
100
AcDbEntity
  8
0
 62
   169
100
AcDbFaceRecord
 10
0.0
 20
0.0
 30
0.0
 70
   128
 71
    -8
 72
     9
 73
    10
  0
VERTEX
  5
439
330
3A5
100
AcDbEntity
  8
0
 62
   169
100
AcDbFaceRecord
 10
0.0
 20
0.0
 30
0.0
 70
   128
 71
    -9
 72
     8
 73
   -11
  0
VERTEX
  5
43A
330
3A5
100
AcDbEntity
  8
0
 62
   169
100
AcDbFaceRecord
 10
0.0
 20
0.0
 30
0.0
 70
   128
 71
    -9
 72
   -11
 73
    12
  0
VERTEX
  5
43B
330
3A5
100
AcDbEntity
  8
0
 62
   169
100
AcDbFaceRecord
 10
0.0
 20
0.0
 30
0.0
 70
   128
 71
   -12
 72
    11
 73
   -13
  0
VERTEX
  5
43C
330
3A5
100
AcDbEntity
  8
0
 62
   169
100
AcDbFaceRecord
 10
0.0
 20
0.0
 30
0.0
 70
   128
 71
   -12
 72
   -13
 73
    14
  0
VERTEX
  5
43D
330
3A5
100
AcDbEntity
  8
0
 62
   169
100
AcDbFaceRecord
 10
0.0
 20
0.0
 30
0.0
 70
   128
 71
   -14
 72
    13
 73
   -15
  0
VERTEX
  5
43E
330
3A5
100
AcDbEntity
  8
0
 62
   169
100
AcDbFaceRecord
 10
0.0
 20
0.0
 30
0.0
 70
   128
 71
   -14
 72
    15
 73
   -16
  0
VERTEX
  5
43F
330
3A5
100
AcDbEntity
  8
0
 62
   169
100
AcDbFaceRecord
 10
0.0
 20
0.0
 30
0.0
 70
   128
 71
   -14
 72
   -16
 73
    17
  0
VERTEX
  5
440
330
3A5
100
AcDbEntity
  8
0
 62
   169
100
AcDbFaceRecord
 10
0.0
 20
0.0
 30
0.0
 70
   128
 71
   -17
 72
   -16
 73
    18
  0
VERTEX
  5
441
330
3A5
100
AcDbEntity
  8
0
 62
   169
100
AcDbFaceRecord
 10
0.0
 20
0.0
 30
0.0
 70
   128
 71
   -18
 72
   -16
 73
    19
  0
VERTEX
  5
442
330
3A5
100
AcDbEntity
  8
0
 62
   169
100
AcDbFaceRecord
 10
0.0
 20
0.0
 30
0.0
 70
   128
 71
   -19
 72
    16
 73
   -20
  0
VERTEX
  5
443
330
3A5
100
AcDbEntity
  8
0
 62
   169
100
AcDbFaceRecord
 10
0.0
 20
0.0
 30
0.0
 70
   128
 71
   -19
 72
   -20
 73
    21
  0
VERTEX
  5
444
330
3A5
100
AcDbEntity
  8
0
 62
   169
100
AcDbFaceRecord
 10
0.0
 20
0.0
 30
0.0
 70
   128
 71
   -21
 72
    20
 73
   -22
  0
VERTEX
  5
445
330
3A5
100
AcDbEntity
  8
0
 62
   169
100
AcDbFaceRecord
 10
0.0
 20
0.0
 30
0.0
 70
   128
 71
   -21
 72
    22
 73
   -23
  0
VERTEX
  5
446
330
3A5
100
AcDbEntity
  8
0
 62
   169
100
AcDbFaceRecord
 10
0.0
 20
0.0
 30
0.0
 70
   128
 71
   -21
 72
   -23
 73
    24
  0
VERTEX
  5
447
330
3A5
100
AcDbEntity
  8
0
 62
   169
100
AcDbFaceRecord
 10
0.0
 20
0.0
 30
0.0
 70
   128
 71
   -24
 72
    23
 73
   -25
  0
VERTEX
  5
448
330
3A5
100
AcDbEntity
  8
0
 62
   169
100
AcDbFaceRecord
 10
0.0
 20
0.0
 30
0.0
 70
   128
 71
   -24
 72
    25
 73
   -26
  0
VERTEX
  5
449
330
3A5
100
AcDbEntity
  8
0
 62
   169
100
AcDbFaceRecord
 10
0.0
 20
0.0
 30
0.0
 70
   128
 71
   -24
 72
   -26
 73
    27
  0
VERTEX
  5
44A
330
3A5
100
AcDbEntity
  8
0
 62
   169
100
AcDbFaceRecord
 10
0.0
 20
0.0
 30
0.0
 70
   128
 71
   -27
 72
   -26
 73
    28
  0
VERTEX
  5
44B
330
3A5
100
AcDbEntity
  8
0
 62
   169
100
AcDbFaceRecord
 10
0.0
 20
0.0
 30
0.0
 70
   128
 71
   -28
 72
   -26
 73
    29
  0
VERTEX
  5
44C
330
3A5
100
AcDbEntity
  8
0
 62
   169
100
AcDbFaceRecord
 10
0.0
 20
0.0
 30
0.0
 70
   128
 71
   -29
 72
   -26
 73
    30
  0
VERTEX
  5
44D
330
3A5
100
AcDbEntity
  8
0
 62
   169
100
AcDbFaceRecord
 10
0.0
 20
0.0
 30
0.0
 70
   128
 71
   -30
 72
    26
 73
   -31
  0
VERTEX
  5
44E
330
3A5
100
AcDbEntity
  8
0
 62
   169
100
AcDbFaceRecord
 10
0.0
 20
0.0
 30
0.0
 70
   128
 71
   -30
 72
    31
 73
   -32
  0
VERTEX
  5
44F
330
3A5
100
AcDbEntity
  8
0
 62
   169
100
AcDbFaceRecord
 10
0.0
 20
0.0
 30
0.0
 70
   128
 71
   -30
 72
   -32
 73
    33
  0
VERTEX
  5
450
330
3A5
100
AcDbEntity
  8
0
 62
   169
100
AcDbFaceRecord
 10
0.0
 20
0.0
 30
0.0
 70
   128
 71
   -33
 72
    32
 73
   -34
  0
VERTEX
  5
451
330
3A5
100
AcDbEntity
  8
0
 62
   169
100
AcDbFaceRecord
 10
0.0
 20
0.0
 30
0.0
 70
   128
 71
   -33
 72
   -34
 73
    35
  0
VERTEX
  5
452
330
3A5
100
AcDbEntity
  8
0
 62
   169
100
AcDbFaceRecord
 10
0.0
 20
0.0
 30
0.0
 70
   128
 71
   -35
 72
   -34
 73
   -36
  0
VERTEX
  5
453
330
3A5
100
AcDbEntity
  8
0
 62
   169
100
AcDbFaceRecord
 10
0.0
 20
0.0
 30
0.0
 70
   128
 71
   -36
 72
   -34
 73
   -37
  0
VERTEX
  5
454
330
3A5
100
AcDbEntity
  8
0
 62
   169
100
AcDbFaceRecord
 10
0.0
 20
0.0
 30
0.0
 70
   128
 71
   -37
 72
   -34
 73
   -38
  0
VERTEX
  5
455
330
3A5
100
AcDbEntity
  8
0
 62
   169
100
AcDbFaceRecord
 10
0.0
 20
0.0
 30
0.0
 70
   128
 71
   -38
 72
   -34
 73
    39
  0
VERTEX
  5
456
330
3A5
100
AcDbEntity
  8
0
 62
   169
100
AcDbFaceRecord
 10
0.0
 20
0.0
 30
0.0
 70
   128
 71
   -39
 72
   -34
 73
    40
  0
VERTEX
  5
457
330
3A5
100
AcDbEntity
  8
0
 62
   169
100
AcDbFaceRecord
 10
0.0
 20
0.0
 30
0.0
 70
   128
 71
   -40
 72
    34
 73
   -41
  0
VERTEX
  5
458
330
3A5
100
AcDbEntity
  8
0
 62
   169
100
AcDbFaceRecord
 10
0.0
 20
0.0
 30
0.0
 70
   128
 71
   -36
 72
   -37
 73
    42
  0
VERTEX
  5
459
330
3A5
100
AcDbEntity
  8
0
 62
   169
100
AcDbFaceRecord
 10
0.0
 20
0.0
 30
0.0
 70
   128
 71
   -37
 72
   -38
 73
    43
  0
VERTEX
  5
45A
330
3A5
100
AcDbEntity
  8
0
 62
   169
100
AcDbFaceRecord
 10
0.0
 20
0.0
 30
0.0
 70
   128
 71
   -43
 72
    38
 73
   -44
  0
VERTEX
  5
45B
330
3A5
100
AcDbEntity
  8
0
 62
   169
100
AcDbFaceRecord
 10
0.0
 20
0.0
 30
0.0
 70
   128
 71
   -40
 72
    41
 73
    45
  0
VERTEX
  5
45C
330
3A5
100
AcDbEntity
  8
0
 62
   169
100
AcDbFaceRecord
 10
0.0
 20
0.0
 30
0.0
 70
   128
 71
   -46
 72
    47
 73
   -48
  0
VERTEX
  5
45D
330
3A5
100
AcDbEntity
  8
0
 62
   169
100
AcDbFaceRecord
 10
0.0
 20
0.0
 30
0.0
 70
   128
 71
   -47
 72
    46
 73
   -49
  0
VERTEX
  5
45E
330
3A5
100
AcDbEntity
  8
0
 62
   169
100
AcDbFaceRecord
 10
0.0
 20
0.0
 30
0.0
 70
   128
 71
   -47
 72
   -49
 73
    50
  0
VERTEX
  5
45F
330
3A5
100
AcDbEntity
  8
0
 62
   169
100
AcDbFaceRecord
 10
0.0
 20
0.0
 30
0.0
 70
   128
 71
   -50
 72
   -49
 73
    51
  0
VERTEX
  5
460
330
3A5
100
AcDbEntity
  8
0
 62
   169
100
AcDbFaceRecord
 10
0.0
 20
0.0
 30
0.0
 70
   128
 71
   -51
 72
    49
 73
   -52
  0
VERTEX
  5
461
330
3A5
100
AcDbEntity
  8
0
 62
   169
100
AcDbFaceRecord
 10
0.0
 20
0.0
 30
0.0
 70
   128
 71
   -51
 72
   -52
 73
    53
  0
VERTEX
  5
462
330
3A5
100
AcDbEntity
  8
0
 62
   169
100
AcDbFaceRecord
 10
0.0
 20
0.0
 30
0.0
 70
   128
 71
   -53
 72
    52
 73
    54
  0
VERTEX
  5
463
330
3A5
100
AcDbEntity
  8
0
 62
   169
100
AcDbFaceRecord
 10
0.0
 20
0.0
 30
0.0
 70
   128
 71
   -55
 72
    56
 73
   -57
  0
VERTEX
  5
464
330
3A5
100
AcDbEntity
  8
0
 62
   169
100
AcDbFaceRecord
 10
0.0
 20
0.0
 30
0.0
 70
   128
 71
   -56
 72
    55
 73
    58
  0
VERTEX
  5
465
330
3A5
100
AcDbEntity
  8
0
 62
   169
100
AcDbFaceRecord
 10
0.0
 20
0.0
 30
0.0
 70
   128
 71
   -35
 72
   -59
 73
    60
  0
VERTEX
  5
466
330
3A5
100
AcDbEntity
  8
0
 62
   169
100
AcDbFaceRecord
 10
0.0
 20
0.0
 30
0.0
 70
   128
 71
   -59
 72
   -35
 73
    36
  0
VERTEX
  5
467
330
3A5
100
AcDbEntity
  8
0
 62
   169
100
AcDbFaceRecord
 10
0.0
 20
0.0
 30
0.0
 70
   128
 71
   -60
 72
   -59
 73
   -61
  0
VERTEX
  5
468
330
3A5
100
AcDbEntity
  8
0
 62
   169
100
AcDbFaceRecord
 10
0.0
 20
0.0
 30
0.0
 70
   128
 71
   -61
 72
    59
 73
   -62
  0
VERTEX
  5
469
330
3A5
100
AcDbEntity
  8
0
 62
   169
100
AcDbFaceRecord
 10
0.0
 20
0.0
 30
0.0
 70
   128
 71
   -60
 72
    61
 73
   -63
  0
VERTEX
  5
46A
330
3A5
100
AcDbEntity
  8
0
 62
   169
100
AcDbFaceRecord
 10
0.0
 20
0.0
 30
0.0
 70
   128
 71
   -60
 72
    63
 73
   -64
  0
VERTEX
  5
46B
330
3A5
100
AcDbEntity
  8
0
 62
   169
100
AcDbFaceRecord
 10
0.0
 20
0.0
 30
0.0
 70
   128
 71
   -60
 72
   -64
 73
   -65
  0
VERTEX
  5
46C
330
3A5
100
AcDbEntity
  8
0
 62
   169
100
AcDbFaceRecord
 10
0.0
 20
0.0
 30
0.0
 70
   128
 71
   -65
 72
   -64
 73
    48
  0
VERTEX
  5
46D
330
3A5
100
AcDbEntity
  8
0
 62
   169
100
AcDbFaceRecord
 10
0.0
 20
0.0
 30
0.0
 70
   128
 71
   -48
 72
    64
 73
   -46
  0
VERTEX
  5
46E
330
3A5
100
AcDbEntity
  8
0
 62
   169
100
AcDbFaceRecord
 10
0.0
 20
0.0
 30
0.0
 70
   128
 71
   -60
 72
    65
 73
   -66
  0
VERTEX
  5
46F
330
3A5
100
AcDbEntity
  8
0
 62
   169
100
AcDbFaceRecord
 10
0.0
 20
0.0
 30
0.0
 70
   128
 71
   -60
 72
    66
 73
   -67
  0
VERTEX
  5
470
330
3A5
100
AcDbEntity
  8
0
 62
   169
100
AcDbFaceRecord
 10
0.0
 20
0.0
 30
0.0
 70
   128
 71
   -60
 72
   -67
 73
    68
  0
VERTEX
  5
471
330
3A5
100
AcDbEntity
  8
0
 62
   169
100
AcDbFaceRecord
 10
0.0
 20
0.0
 30
0.0
 70
   128
 71
   -68
 72
    67
 73
   -69
  0
VERTEX
  5
472
330
3A5
100
AcDbEntity
  8
0
 62
   169
100
AcDbFaceRecord
 10
0.0
 20
0.0
 30
0.0
 70
   128
 71
   -68
 72
   -69
 73
    70
  0
VERTEX
  5
473
330
3A5
100
AcDbEntity
  8
0
 62
   169
100
AcDbFaceRecord
 10
0.0
 20
0.0
 30
0.0
 70
   128
 71
   -70
 72
   -69
 73
   -71
  0
VERTEX
  5
474
330
3A5
100
AcDbEntity
  8
0
 62
   169
100
AcDbFaceRecord
 10
0.0
 20
0.0
 30
0.0
 70
   128
 71
   -71
 72
   -69
 73
    72
  0
VERTEX
  5
475
330
3A5
100
AcDbEntity
  8
0
 62
   169
100
AcDbFaceRecord
 10
0.0
 20
0.0
 30
0.0
 70
   128
 71
   -72
 72
    69
 73
   -73
  0
VERTEX
  5
476
330
3A5
100
AcDbEntity
  8
0
 62
   169
100
AcDbFaceRecord
 10
0.0
 20
0.0
 30
0.0
 70
   128
 71
   -72
 72
   -73
 73
    74
  0
VERTEX
  5
477
330
3A5
100
AcDbEntity
  8
0
 62
   169
100
AcDbFaceRecord
 10
0.0
 20
0.0
 30
0.0
 70
   128
 71
   -74
 72
    73
 73
   -75
  0
VERTEX
  5
478
330
3A5
100
AcDbEntity
  8
0
 62
   169
100
AcDbFaceRecord
 10
0.0
 20
0.0
 30
0.0
 70
   128
 71
   -74
 72
   -75
 73
    76
  0
VERTEX
  5
479
330
3A5
100
AcDbEntity
  8
0
 62
   169
100
AcDbFaceRecord
 10
0.0
 20
0.0
 30
0.0
 70
   128
 71
   -76
 72
    75
 73
   -55
  0
VERTEX
  5
47A
330
3A5
100
AcDbEntity
  8
0
 62
   169
100
AcDbFaceRecord
 10
0.0
 20
0.0
 30
0.0
 70
   128
 71
   -76
 72
   -55
 73
    77
  0
VERTEX
  5
47B
330
3A5
100
AcDbEntity
  8
0
 62
   169
100
AcDbFaceRecord
 10
0.0
 20
0.0
 30
0.0
 70
   128
 71
   -77
 72
   -55
 73
   -78
  0
VERTEX
  5
47C
330
3A5
100
AcDbEntity
  8
0
 62
   169
100
AcDbFaceRecord
 10
0.0
 20
0.0
 30
0.0
 70
   128
 71
   -78
 72
   -55
 73
   -57
  0
VERTEX
  5
47D
330
3A5
100
AcDbEntity
  8
0
 62
   169
100
AcDbFaceRecord
 10
0.0
 20
0.0
 30
0.0
 70
   128
 71
   -78
 72
    57
 73
   -79
  0
VERTEX
  5
47E
330
3A5
100
AcDbEntity
  8
0
 62
   169
100
AcDbFaceRecord
 10
0.0
 20
0.0
 30
0.0
 70
   128
 71
   -78
 72
    79
 73
   -80
  0
VERTEX
  5
47F
330
3A5
100
AcDbEntity
  8
0
 62
   169
100
AcDbFaceRecord
 10
0.0
 20
0.0
 30
0.0
 70
   128
 71
   -78
 72
    80
 73
    81
  0
VERTEX
  5
480
330
3A5
100
AcDbEntity
  8
0
 62
   169
100
AcDbFaceRecord
 10
0.0
 20
0.0
 30
0.0
 70
   128
 71
    78
 72
    82
 73
   -77
  0
VERTEX
  5
481
330
3A5
100
AcDbEntity
  8
0
 62
   169
100
AcDbFaceRecord
 10
0.0
 20
0.0
 30
0.0
 70
   128
 71
   -83
 72
    84
 73
   -85
  0
VERTEX
  5
482
330
3A5
100
AcDbEntity
  8
0
 62
   169
100
AcDbFaceRecord
 10
0.0
 20
0.0
 30
0.0
 70
   128
 71
   -84
 72
   -83
 73
    86
  0
VERTEX
  5
483
330
3A5
100
AcDbEntity
  8
0
 62
   169
100
AcDbFaceRecord
 10
0.0
 20
0.0
 30
0.0
 70
   128
 71
   -86
 72
   -83
 73
    87
  0
VERTEX
  5
484
330
3A5
100
AcDbEntity
  8
0
 62
   169
100
AcDbFaceRecord
 10
0.0
 20
0.0
 30
0.0
 70
   128
 71
   -87
 72
   -83
 73
    88
  0
VERTEX
  5
485
330
3A5
100
AcDbEntity
  8
0
 62
   169
100
AcDbFaceRecord
 10
0.0
 20
0.0
 30
0.0
 70
   128
 71
   -88
 72
   -83
 73
    89
  0
VERTEX
  5
486
330
3A5
100
AcDbEntity
  8
0
 62
   169
100
AcDbFaceRecord
 10
0.0
 20
0.0
 30
0.0
 70
   128
 71
   -89
 72
   -83
 73
    90
  0
VERTEX
  5
487
330
3A5
100
AcDbEntity
  8
0
 62
   169
100
AcDbFaceRecord
 10
0.0
 20
0.0
 30
0.0
 70
   128
 71
   -90
 72
   -83
 73
    91
  0
VERTEX
  5
488
330
3A5
100
AcDbEntity
  8
0
 62
   169
100
AcDbFaceRecord
 10
0.0
 20
0.0
 30
0.0
 70
   128
 71
   -91
 72
   -83
 73
    92
  0
VERTEX
  5
489
330
3A5
100
AcDbEntity
  8
0
 62
   169
100
AcDbFaceRecord
 10
0.0
 20
0.0
 30
0.0
 70
   128
 71
   -92
 72
   -83
 73
    93
  0
VERTEX
  5
48A
330
3A5
100
AcDbEntity
  8
0
 62
   169
100
AcDbFaceRecord
 10
0.0
 20
0.0
 30
0.0
 70
   128
 71
   -93
 72
    83
 73
   -94
  0
VERTEX
  5
48B
330
3A5
100
AcDbEntity
  8
0
 62
   169
100
AcDbFaceRecord
 10
0.0
 20
0.0
 30
0.0
 70
   128
 71
   -93
 72
   -94
 73
    95
  0
VERTEX
  5
48C
330
3A5
100
AcDbEntity
  8
0
 62
   169
100
AcDbFaceRecord
 10
0.0
 20
0.0
 30
0.0
 70
   128
 71
   -95
 72
   -94
 73
    96
  0
VERTEX
  5
48D
330
3A5
100
AcDbEntity
  8
0
 62
   169
100
AcDbFaceRecord
 10
0.0
 20
0.0
 30
0.0
 70
   128
 71
   -96
 72
   -94
 73
    97
  0
VERTEX
  5
48E
330
3A5
100
AcDbEntity
  8
0
 62
   169
100
AcDbFaceRecord
 10
0.0
 20
0.0
 30
0.0
 70
   128
 71
   -97
 72
   -94
 73
    98
  0
VERTEX
  5
48F
330
3A5
100
AcDbEntity
  8
0
 62
   169
100
AcDbFaceRecord
 10
0.0
 20
0.0
 30
0.0
 70
   128
 71
   -98
 72
   -94
 73
   -99
  0
VERTEX
  5
490
330
3A5
100
AcDbEntity
  8
0
 62
   169
100
AcDbFaceRecord
 10
0.0
 20
0.0
 30
0.0
 70
   128
 71
   -99
 72
   -94
 73
   100
  0
VERTEX
  5
491
330
3A5
100
AcDbEntity
  8
0
 62
   169
100
AcDbFaceRecord
 10
0.0
 20
0.0
 30
0.0
 70
   128
 71
  -100
 72
   -94
 73
   101
  0
VERTEX
  5
492
330
3A5
100
AcDbEntity
  8
0
 62
   169
100
AcDbFaceRecord
 10
0.0
 20
0.0
 30
0.0
 70
   128
 71
  -101
 72
   -94
 73
   102
  0
VERTEX
  5
493
330
3A5
100
AcDbEntity
  8
0
 62
   169
100
AcDbFaceRecord
 10
0.0
 20
0.0
 30
0.0
 70
   128
 71
  -102
 72
   -94
 73
    71
  0
VERTEX
  5
494
330
3A5
100
AcDbEntity
  8
0
 62
   169
100
AcDbFaceRecord
 10
0.0
 20
0.0
 30
0.0
 70
   128
 71
   -71
 72
    94
 73
   -70
  0
VERTEX
  5
495
330
3A5
100
AcDbEntity
  8
0
 62
   169
100
AcDbFaceRecord
 10
0.0
 20
0.0
 30
0.0
 70
   128
 71
   -98
 72
   103
 73
   104
  0
VERTEX
  5
496
330
3A5
100
AcDbEntity
  8
0
 62
   169
100
AcDbFaceRecord
 10
0.0
 20
0.0
 30
0.0
 70
   128
 71
  -103
 72
   -98
 73
    99
  0
VERTEX
  5
497
330
3A5
100
AcDbEntity
  8
0
 62
   169
100
AcDbFaceRecord
 10
0.0
 20
0.0
 30
0.0
 70
   128
 71
   105
 72
   -43
 73
    44
  0
VERTEX
  5
498
330
3A5
100
AcDbEntity
  8
0
 62
   169
100
AcDbFaceRecord
 10
0.0
 20
0.0
 30
0.0
 70
   128
 71
   -42
 72
   106
 73
   107
  0
VERTEX
  5
499
330
3A5
100
AcDbEntity
  8
0
 62
   169
100
AcDbFaceRecord
 10
0.0
 20
0.0
 30
0.0
 70
   128
 71
  -106
 72
   -42
 73
   108
  0
VERTEX
  5
49A
330
3A5
100
AcDbEntity
  8
0
 62
   169
100
AcDbFaceRecord
 10
0.0
 20
0.0
 30
0.0
 70
   128
 71
  -108
 72
   -42
 73
    37
  0
VERTEX
  5
49B
330
3A5
100
AcDbEntity
  8
0
 62
   169
100
AcDbFaceRecord
 10
0.0
 20
0.0
 30
0.0
 70
   128
 71
  -109
 72
   -61
 73
    62
  0
VERTEX
  5
49C
330
3A5
100
AcDbEntity
  8
0
 62
   169
100
AcDbFaceRecord
 10
0.0
 20
0.0
 30
0.0
 70
   128
 71
   -61
 72
  -109
 73
   110
  0
VERTEX
  5
49D
330
3A5
100
AcDbEntity
  8
0
 62
   169
100
AcDbFaceRecord
 10
0.0
 20
0.0
 30
0.0
 70
   128
 71
  -110
 72
  -109
 73
   111
  0
VERTEX
  5
49E
330
3A5
100
AcDbEntity
  8
0
 62
   169
100
AcDbFaceRecord
 10
0.0
 20
0.0
 30
0.0
 70
   128
 71
  -111
 72
   109
 73
  -112
  0
VERTEX
  5
49F
330
3A5
100
AcDbEntity
  8
0
 62
   169
100
AcDbFaceRecord
 10
0.0
 20
0.0
 30
0.0
 70
   128
 71
  -111
 72
   112
 73
   113
  0
VERTEX
  5
4A0
330
3A5
100
AcDbEntity
  8
0
 62
   169
100
AcDbFaceRecord
 10
0.0
 20
0.0
 30
0.0
 70
   128
 71
  -114
 72
   115
 73
   116
  0
VERTEX
  5
4A1
330
3A5
100
AcDbEntity
  8
0
 62
   169
100
AcDbFaceRecord
 10
0.0
 20
0.0
 30
0.0
 70
   128
 71
  -115
 72
   114
 73
  -117
  0
VERTEX
  5
4A2
330
3A5
100
AcDbEntity
  8
0
 62
   169
100
AcDbFaceRecord
 10
0.0
 20
0.0
 30
0.0
 70
   128
 71
  -115
 72
   117
 73
    -6
  0
VERTEX
  5
4A3
330
3A5
100
AcDbEntity
  8
0
 62
   169
100
AcDbFaceRecord
 10
0.0
 20
0.0
 30
0.0
 70
   128
 71
  -115
 72
    -6
 73
    -7
  0
VERTEX
  5
4A4
330
3A5
100
AcDbEntity
  8
0
 62
   169
100
AcDbFaceRecord
 10
0.0
 20
0.0
 30
0.0
 70
   128
 71
  -115
 72
     7
 73
  -118
  0
VERTEX
  5
4A5
330
3A5
100
AcDbEntity
  8
0
 62
   169
100
AcDbFaceRecord
 10
0.0
 20
0.0
 30
0.0
 70
   128
 71
  -115
 72
  -118
 73
   119
  0
VERTEX
  5
4A6
330
3A5
100
AcDbEntity
  8
0
 62
   169
100
AcDbFaceRecord
 10
0.0
 20
0.0
 30
0.0
 70
   128
 71
  -119
 72
   118
 73
  -120
  0
VERTEX
  5
4A7
330
3A5
100
AcDbEntity
  8
0
 62
   169
100
AcDbFaceRecord
 10
0.0
 20
0.0
 30
0.0
 70
   128
 71
  -119
 72
   120
 73
  -121
  0
VERTEX
  5
4A8
330
3A5
100
AcDbEntity
  8
0
 62
   169
100
AcDbFaceRecord
 10
0.0
 20
0.0
 30
0.0
 70
   128
 71
  -119
 72
  -121
 73
   122
  0
VERTEX
  5
4A9
330
3A5
100
AcDbEntity
  8
0
 62
   169
100
AcDbFaceRecord
 10
0.0
 20
0.0
 30
0.0
 70
   128
 71
  -122
 72
  -121
 73
   123
  0
VERTEX
  5
4AA
330
3A5
100
AcDbEntity
  8
0
 62
   169
100
AcDbFaceRecord
 10
0.0
 20
0.0
 30
0.0
 70
   128
 71
  -123
 72
   121
 73
  -124
  0
VERTEX
  5
4AB
330
3A5
100
AcDbEntity
  8
0
 62
   169
100
AcDbFaceRecord
 10
0.0
 20
0.0
 30
0.0
 70
   128
 71
  -123
 72
  -124
 73
   125
  0
VERTEX
  5
4AC
330
3A5
100
AcDbEntity
  8
0
 62
   169
100
AcDbFaceRecord
 10
0.0
 20
0.0
 30
0.0
 70
   128
 71
  -125
 72
   124
 73
  -126
  0
VERTEX
  5
4AD
330
3A5
100
AcDbEntity
  8
0
 62
   169
100
AcDbFaceRecord
 10
0.0
 20
0.0
 30
0.0
 70
   128
 71
  -125
 72
  -126
 73
   127
  0
VERTEX
  5
4AE
330
3A5
100
AcDbEntity
  8
0
 62
   169
100
AcDbFaceRecord
 10
0.0
 20
0.0
 30
0.0
 70
   128
 71
  -127
 72
  -126
 73
   128
  0
VERTEX
  5
4AF
330
3A5
100
AcDbEntity
  8
0
 62
   169
100
AcDbFaceRecord
 10
0.0
 20
0.0
 30
0.0
 70
   128
 71
  -128
 72
  -126
 73
   129
  0
VERTEX
  5
4B0
330
3A5
100
AcDbEntity
  8
0
 62
   169
100
AcDbFaceRecord
 10
0.0
 20
0.0
 30
0.0
 70
   128
 71
  -129
 72
   126
 73
  -130
  0
VERTEX
  5
4B1
330
3A5
100
AcDbEntity
  8
0
 62
   169
100
AcDbFaceRecord
 10
0.0
 20
0.0
 30
0.0
 70
   128
 71
  -129
 72
   130
 73
  -131
  0
VERTEX
  5
4B2
330
3A5
100
AcDbEntity
  8
0
 62
   169
100
AcDbFaceRecord
 10
0.0
 20
0.0
 30
0.0
 70
   128
 71
  -129
 72
  -131
 73
   132
  0
VERTEX
  5
4B3
330
3A5
100
AcDbEntity
  8
0
 62
   169
100
AcDbFaceRecord
 10
0.0
 20
0.0
 30
0.0
 70
   128
 71
  -132
 72
   131
 73
  -133
  0
VERTEX
  5
4B4
330
3A5
100
AcDbEntity
  8
0
 62
   169
100
AcDbFaceRecord
 10
0.0
 20
0.0
 30
0.0
 70
   128
 71
  -132
 72
  -133
 73
   134
  0
VERTEX
  5
4B5
330
3A5
100
AcDbEntity
  8
0
 62
   169
100
AcDbFaceRecord
 10
0.0
 20
0.0
 30
0.0
 70
   128
 71
  -134
 72
   133
 73
  -135
  0
VERTEX
  5
4B6
330
3A5
100
AcDbEntity
  8
0
 62
   169
100
AcDbFaceRecord
 10
0.0
 20
0.0
 30
0.0
 70
   128
 71
  -134
 72
  -135
 73
   136
  0
VERTEX
  5
4B7
330
3A5
100
AcDbEntity
  8
0
 62
   169
100
AcDbFaceRecord
 10
0.0
 20
0.0
 30
0.0
 70
   128
 71
  -136
 72
   135
 73
  -137
  0
VERTEX
  5
4B8
330
3A5
100
AcDbEntity
  8
0
 62
   169
100
AcDbFaceRecord
 10
0.0
 20
0.0
 30
0.0
 70
   128
 71
  -136
 72
   137
 73
  -138
  0
VERTEX
  5
4B9
330
3A5
100
AcDbEntity
  8
0
 62
   169
100
AcDbFaceRecord
 10
0.0
 20
0.0
 30
0.0
 70
   128
 71
  -136
 72
  -138
 73
   139
  0
VERTEX
  5
4BA
330
3A5
100
AcDbEntity
  8
0
 62
   169
100
AcDbFaceRecord
 10
0.0
 20
0.0
 30
0.0
 70
   128
 71
  -139
 72
   138
 73
   -83
  0
VERTEX
  5
4BB
330
3A5
100
AcDbEntity
  8
0
 62
   169
100
AcDbFaceRecord
 10
0.0
 20
0.0
 30
0.0
 70
   128
 71
  -139
 72
   -83
 73
   -85
  0
VERTEX
  5
4BC
330
3A5
100
AcDbEntity
  8
0
 62
   169
100
AcDbFaceRecord
 10
0.0
 20
0.0
 30
0.0
 70
   128
 71
  -139
 72
    85
 73
  -140
  0
VERTEX
  5
4BD
330
3A5
100
AcDbEntity
  8
0
 62
   169
100
AcDbFaceRecord
 10
0.0
 20
0.0
 30
0.0
 70
   128
 71
  -139
 72
   140
 73
   141
  0
SEQEND
  5
4BE
330
3A5
100
AcDbEntity
  8
0
 62
   169
  0
POLYLINE
  5
4C0
330
74
100
AcDbEntity
  8
0
 62
   179
100
AcDbPolyFaceMesh
 66
     1
 10
0.0
 20
0.0
 30
0.0
 70
    64
 71
    29
 72
    27
1001
ACAD_MATERIAL_MAPPER
1070
     1
1070
     1
1070
     1
1011
-0.0000000000002575
1021
0.0
1031
0.0
1011
25.39999999999979
1021
0.0
1031
0.0
1011
-0.0000000000043776
1021
0.0
1031
25.40000000000002
1011
-0.0000000000002575
1021
1.0
1031
0.0
  0
VERTEX
  5
4C1
330
4C0
100
AcDbEntity
  8
0
 62
   179
100
AcDbVertex
100
AcDbPolyFaceMeshVertex
 10
281.2204542646707
 20
0.0
 30
0.4438773769032138
 70
   192
  0
VERTEX
  5
4C2
330
4C0
100
AcDbEntity
  8
0
 62
   179
100
AcDbVertex
100
AcDbPolyFaceMeshVertex
 10
233.4940431103132
 20
0.0000000000002707
 30
0.0
 70
   192
  0
VERTEX
  5
4C3
330
4C0
100
AcDbEntity
  8
0
 62
   179
100
AcDbVertex
100
AcDbPolyFaceMeshVertex
 10
273.600091314057
 20
0.0000000000004963
 30
0.0
 70
   192
  0
VERTEX
  5
4C4
330
4C0
100
AcDbEntity
  8
0
 62
   179
100
AcDbVertex
100
AcDbPolyFaceMeshVertex
 10
207.6482870308403
 20
0.000000000000361
 30
6.810948156679808
 70
   192
  0
VERTEX
  5
4C5
330
4C0
100
AcDbEntity
  8
0
 62
   179
100
AcDbVertex
100
AcDbPolyFaceMeshVertex
 10
302.4869738079773
 20
0.0000000000000902
 30
5.524546314950324
 70
   192
  0
VERTEX
  5
4C6
330
4C0
100
AcDbEntity
  8
0
 62
   179
100
AcDbVertex
100
AcDbPolyFaceMeshVertex
 10
282.8294301198141
 20
0.0000000000005414
 30
10.38582728057682
 70
   192
  0
VERTEX
  5
4C7
330
4C0
100
AcDbEntity
  8
0
 62
   179
100
AcDbVertex
100
AcDbPolyFaceMeshVertex
 10
325.1073316012243
 20
0.0000000000001805
 30
15.91839755030014
 70
   192
  0
VERTEX
  5
4C8
330
4C0
100
AcDbEntity
  8
0
 62
   179
100
AcDbVertex
100
AcDbPolyFaceMeshVertex
 10
262.4468469068963
 20
-0.0000000000002256
 30
9.969945992842074
 70
   192
  0
VERTEX
  5
4C9
330
4C0
100
AcDbEntity
  8
0
 62
   179
100
AcDbVertex
100
AcDbPolyFaceMeshVertex
 10
290.621229029043
 20
-0.0000000000000451
 30
19.96263602412133
 70
   192
  0
VERTEX
  5
4CA
330
4C0
100
AcDbEntity
  8
0
 62
   179
100
AcDbVertex
100
AcDbPolyFaceMeshVertex
 10
326.5913922487485
 20
0.0000000000005414
 30
25.75877536632908
 70
   192
  0
VERTEX
  5
4CB
330
4C0
100
AcDbEntity
  8
0
 62
   179
100
AcDbVertex
100
AcDbPolyFaceMeshVertex
 10
298.7059469745317
 20
0.0000000000004963
 30
30.17200464521027
 70
   192
  0
VERTEX
  5
4CC
330
4C0
100
AcDbEntity
  8
0
 62
   179
100
AcDbVertex
100
AcDbPolyFaceMeshVertex
 10
323.6193477185452
 20
0.0000000000001805
 30
34.72840678561392
 70
   192
  0
VERTEX
  5
4CD
330
4C0
100
AcDbEntity
  8
0
 62
   179
100
AcDbVertex
100
AcDbPolyFaceMeshVertex
 10
320.4025297247906
 20
-0.0000000000004512
 30
38.79092737913554
 70
   192
  0
VERTEX
  5
4CE
330
4C0
100
AcDbEntity
  8
0
 62
   179
100
AcDbVertex
100
AcDbPolyFaceMeshVertex
 10
196.8243059690938
 20
0.0000000000001805
 30
11.55396591139772
 70
   192
  0
VERTEX
  5
4CF
330
4C0
100
AcDbEntity
  8
0
 62
   179
100
AcDbVertex
100
AcDbPolyFaceMeshVertex
 10
221.8427388664137
 20
0.0000000000001354
 30
12.22549912870345
 70
   192
  0
VERTEX
  5
4D0
330
4C0
100
AcDbEntity
  8
0
 62
   179
100
AcDbVertex
100
AcDbPolyFaceMeshVertex
 10
205.904154593784
 20
0.0
 30
17.58784811740002
 70
   192
  0
VERTEX
  5
4D1
330
4C0
100
AcDbEntity
  8
0
 62
   179
100
AcDbVertex
100
AcDbPolyFaceMeshVertex
 10
186.5424271761411
 20
0.0000000000001805
 30
24.10202283939478
 70
   192
  0
VERTEX
  5
4D2
330
4C0
100
AcDbEntity
  8
0
 62
   179
100
AcDbVertex
100
AcDbPolyFaceMeshVertex
 10
180.0167774002944
 20
0.0000000000002256
 30
35.74310378856836
 70
   192
  0
VERTEX
  5
4D3
330
4C0
100
AcDbEntity
  8
0
 62
   179
100
AcDbVertex
100
AcDbPolyFaceMeshVertex
 10
178.6826683736804
 20
-0.000000000000361
 30
29.67649284932413
 70
   192
  0
VERTEX
  5
4D4
330
4C0
100
AcDbEntity
  8
0
 62
   179
100
AcDbVertex
100
AcDbPolyFaceMeshVertex
 10
157.5602811735554
 20
0.0000000000000451
 30
34.2162446748445
 70
   192
  0
VERTEX
  5
4D5
330
4C0
100
AcDbEntity
  8
0
 62
   179
100
AcDbVertex
100
AcDbPolyFaceMeshVertex
 10
98.76838962479266
 20
0.000000000000361
 30
33.41996289900541
 70
   192
  0
VERTEX
  5
4D6
330
4C0
100
AcDbEntity
  8
0
 62
   179
100
AcDbVertex
100
AcDbPolyFaceMeshVertex
 10
94.63312462492858
 20
0.0000000000001805
 30
44.35613816643305
 70
   192
  0
VERTEX
  5
4D7
330
4C0
100
AcDbEntity
  8
0
 62
   179
100
AcDbVertex
100
AcDbPolyFaceMeshVertex
 10
140.019294566295
 20
-0.0000000000003158
 30
41.95030608238312
 70
   192
  0
VERTEX
  5
4D8
330
4C0
100
AcDbEntity
  8
0
 62
   179
100
AcDbVertex
100
AcDbPolyFaceMeshVertex
 10
113.5805420364675
 20
0.0
 30
47.50653648993956
 70
   192
  0
VERTEX
  5
4D9
330
4C0
100
AcDbEntity
  8
0
 62
   179
100
AcDbVertex
100
AcDbPolyFaceMeshVertex
 10
97.64998359303596
 20
0.0000000000002256
 30
54.44589944511076
 70
   192
  0
VERTEX
  5
4DA
330
4C0
100
AcDbEntity
  8
0
 62
   179
100
AcDbVertex
100
AcDbPolyFaceMeshVertex
 10
166.185099787985
 20
0.000000000000361
 30
22.31233404258349
 70
   192
  0
VERTEX
  5
4DB
330
4C0
100
AcDbEntity
  8
0
 62
   179
100
AcDbVertex
100
AcDbPolyFaceMeshVertex
 10
117.819825500102
 20
-0.0000000000001805
 30
25.82090740985064
 70
   192
  0
VERTEX
  5
4DC
330
4C0
100
AcDbEntity
  8
0
 62
   179
100
AcDbVertex
100
AcDbPolyFaceMeshVertex
 10
148.5301233229014
 20
0.0000000000002256
 30
21.85002221356297
 70
   192
  0
VERTEX
  5
4DD
330
4C0
100
AcDbEntity
  8
0
 62
   179
100
AcDbVertex
100
AcDbPolyFaceMeshVertex
 10
172.767383625618
 20
0.0
 30
27.51103697854908
 70
   192
  0
VERTEX
  5
4DE
330
4C0
100
AcDbEntity
  8
0
 62
   179
100
AcDbFaceRecord
 10
0.0
 20
0.0
 30
0.0
 70
   128
 71
    -1
 72
     2
 73
     3
  0
VERTEX
  5
4DF
330
4C0
100
AcDbEntity
  8
0
 62
   179
100
AcDbFaceRecord
 10
0.0
 20
0.0
 30
0.0
 70
   128
 71
    -2
 72
    -1
 73
     4
  0
VERTEX
  5
4E0
330
4C0
100
AcDbEntity
  8
0
 62
   179
100
AcDbFaceRecord
 10
0.0
 20
0.0
 30
0.0
 70
   128
 71
    -4
 72
     1
 73
    -5
  0
VERTEX
  5
4E1
330
4C0
100
AcDbEntity
  8
0
 62
   179
100
AcDbFaceRecord
 10
0.0
 20
0.0
 30
0.0
 70
   128
 71
    -4
 72
    -5
 73
    -6
  0
VERTEX
  5
4E2
330
4C0
100
AcDbEntity
  8
0
 62
   179
100
AcDbFaceRecord
 10
0.0
 20
0.0
 30
0.0
 70
   128
 71
    -6
 72
     5
 73
    -7
  0
VERTEX
  5
4E3
330
4C0
100
AcDbEntity
  8
0
 62
   179
100
AcDbFaceRecord
 10
0.0
 20
0.0
 30
0.0
 70
   128
 71
    -4
 72
     6
 73
    -8
  0
VERTEX
  5
4E4
330
4C0
100
AcDbEntity
  8
0
 62
   179
100
AcDbFaceRecord
 10
0.0
 20
0.0
 30
0.0
 70
   128
 71
    -6
 72
    -7
 73
     9
  0
VERTEX
  5
4E5
330
4C0
100
AcDbEntity
  8
0
 62
   179
100
AcDbFaceRecord
 10
0.0
 20
0.0
 30
0.0
 70
   128
 71
    -9
 72
     7
 73
   -10
  0
VERTEX
  5
4E6
330
4C0
100
AcDbEntity
  8
0
 62
   179
100
AcDbFaceRecord
 10
0.0
 20
0.0
 30
0.0
 70
   128
 71
    -9
 72
   -10
 73
    11
  0
VERTEX
  5
4E7
330
4C0
100
AcDbEntity
  8
0
 62
   179
100
AcDbFaceRecord
 10
0.0
 20
0.0
 30
0.0
 70
   128
 71
   -11
 72
    10
 73
   -12
  0
VERTEX
  5
4E8
330
4C0
100
AcDbEntity
  8
0
 62
   179
100
AcDbFaceRecord
 10
0.0
 20
0.0
 30
0.0
 70
   128
 71
   -11
 72
    12
 73
    13
  0
VERTEX
  5
4E9
330
4C0
100
AcDbEntity
  8
0
 62
   179
100
AcDbFaceRecord
 10
0.0
 20
0.0
 30
0.0
 70
   128
 71
    -8
 72
    14
 73
    -4
  0
VERTEX
  5
4EA
330
4C0
100
AcDbEntity
  8
0
 62
   179
100
AcDbFaceRecord
 10
0.0
 20
0.0
 30
0.0
 70
   128
 71
   -14
 72
     8
 73
   -15
  0
VERTEX
  5
4EB
330
4C0
100
AcDbEntity
  8
0
 62
   179
100
AcDbFaceRecord
 10
0.0
 20
0.0
 30
0.0
 70
   128
 71
   -14
 72
    15
 73
   -16
  0
VERTEX
  5
4EC
330
4C0
100
AcDbEntity
  8
0
 62
   179
100
AcDbFaceRecord
 10
0.0
 20
0.0
 30
0.0
 70
   128
 71
   -14
 72
   -16
 73
    17
  0
VERTEX
  5
4ED
330
4C0
100
AcDbEntity
  8
0
 62
   179
100
AcDbFaceRecord
 10
0.0
 20
0.0
 30
0.0
 70
   128
 71
   -17
 72
    16
 73
   -18
  0
VERTEX
  5
4EE
330
4C0
100
AcDbEntity
  8
0
 62
   179
100
AcDbFaceRecord
 10
0.0
 20
0.0
 30
0.0
 70
   128
 71
   -17
 72
   -18
 73
    19
  0
VERTEX
  5
4EF
330
4C0
100
AcDbEntity
  8
0
 62
   179
100
AcDbFaceRecord
 10
0.0
 20
0.0
 30
0.0
 70
   128
 71
   -19
 72
    18
 73
   -20
  0
VERTEX
  5
4F0
330
4C0
100
AcDbEntity
  8
0
 62
   179
100
AcDbFaceRecord
 10
0.0
 20
0.0
 30
0.0
 70
   128
 71
   -19
 72
   -20
 73
   -21
  0
VERTEX
  5
4F1
330
4C0
100
AcDbEntity
  8
0
 62
   179
100
AcDbFaceRecord
 10
0.0
 20
0.0
 30
0.0
 70
   128
 71
   -20
 72
    22
 73
   -21
  0
VERTEX
  5
4F2
330
4C0
100
AcDbEntity
  8
0
 62
   179
100
AcDbFaceRecord
 10
0.0
 20
0.0
 30
0.0
 70
   128
 71
   -22
 72
    20
 73
   -23
  0
VERTEX
  5
4F3
330
4C0
100
AcDbEntity
  8
0
 62
   179
100
AcDbFaceRecord
 10
0.0
 20
0.0
 30
0.0
 70
   128
 71
   -22
 72
    23
 73
   -24
  0
VERTEX
  5
4F4
330
4C0
100
AcDbEntity
  8
0
 62
   179
100
AcDbFaceRecord
 10
0.0
 20
0.0
 30
0.0
 70
   128
 71
   -22
 72
    24
 73
    25
  0
VERTEX
  5
4F5
330
4C0
100
AcDbEntity
  8
0
 62
   179
100
AcDbFaceRecord
 10
0.0
 20
0.0
 30
0.0
 70
   128
 71
   -26
 72
    27
 73
    28
  0
VERTEX
  5
4F6
330
4C0
100
AcDbEntity
  8
0
 62
   179
100
AcDbFaceRecord
 10
0.0
 20
0.0
 30
0.0
 70
   128
 71
   -27
 72
    26
 73
   -29
  0
VERTEX
  5
4F7
330
4C0
100
AcDbEntity
  8
0
 62
   179
100
AcDbFaceRecord
 10
0.0
 20
0.0
 30
0.0
 70
   128
 71
   -27
 72
   -29
 73
    21
  0
VERTEX
  5
4F8
330
4C0
100
AcDbEntity
  8
0
 62
   179
100
AcDbFaceRecord
 10
0.0
 20
0.0
 30
0.0
 70
   128
 71
   -21
 72
    29
 73
   -19
  0
SEQEND
  5
4F9
330
4C0
100
AcDbEntity
  8
0
 62
   179
  0
POLYLINE
  5
4FA
330
74
100
AcDbEntity
  8
0
 62
   251
100
AcDbPolyFaceMesh
 66
     1
 10
0.0
 20
0.0
 30
0.0
 70
    64
 71
     6
 72
     4
1001
ACAD_MATERIAL_MAPPER
1070
     1
1070
     1
1070
     1
1011
0.0
1021
0.0
1031
0.0
1011
25.4
1021
0.0
1031
-0.000000000000003
1011
0.0
1021
0.0
1031
25.4
1011
0.0
1021
1.0
1031
0.0
  0
VERTEX
  5
4FB
330
4FA
100
AcDbEntity
  8
0
 62
   251
100
AcDbVertex
100
AcDbPolyFaceMeshVertex
 10
30.86407369313565
 20
0.0000000000001805
 30
17.18878515203862
 70
   192
  0
VERTEX
  5
4FC
330
4FA
100
AcDbEntity
  8
0
 62
   251
100
AcDbVertex
100
AcDbPolyFaceMeshVertex
 10
1.760702400642901
 20
0.000000000000361
 30
15.43010644679523
 70
   192
  0
VERTEX
  5
4FD
330
4FA
100
AcDbEntity
  8
0
 62
   251
100
AcDbVertex
100
AcDbPolyFaceMeshVertex
 10
9.471845246770352
 20
0.0000000000005414
 30
10.15418419825187
 70
   192
  0
VERTEX
  5
4FE
330
4FA
100
AcDbEntity
  8
0
 62
   251
100
AcDbVertex
100
AcDbPolyFaceMeshVertex
 10
-1.448420907778053
 20
0.0000000000005414
 30
20.7856137369297
 70
   192
  0
VERTEX
  5
4FF
330
4FA
100
AcDbEntity
  8
0
 62
   251
100
AcDbVertex
100
AcDbPolyFaceMeshVertex
 10
12.20807375353706
 20
0.0000000000001805
 30
21.20841072496196
 70
   192
  0
VERTEX
  5
500
330
4FA
100
AcDbEntity
  8
0
 62
   251
100
AcDbVertex
100
AcDbPolyFaceMeshVertex
 10
30.86407369313565
 20
0.0000000000001805
 30
28.74550757555929
 70
   192
  0
VERTEX
  5
501
330
4FA
100
AcDbEntity
  8
0
 62
   251
100
AcDbFaceRecord
 10
0.0
 20
0.0
 30
0.0
 70
   128
 71
    -1
 72
     2
 73
     3
  0
VERTEX
  5
502
330
4FA
100
AcDbEntity
  8
0
 62
   251
100
AcDbFaceRecord
 10
0.0
 20
0.0
 30
0.0
 70
   128
 71
    -2
 72
    -1
 73
     4
  0
VERTEX
  5
503
330
4FA
100
AcDbEntity
  8
0
 62
   251
100
AcDbFaceRecord
 10
0.0
 20
0.0
 30
0.0
 70
   128
 71
    -4
 72
    -1
 73
     5
  0
VERTEX
  5
504
330
4FA
100
AcDbEntity
  8
0
 62
   251
100
AcDbFaceRecord
 10
0.0
 20
0.0
 30
0.0
 70
   128
 71
    -5
 72
     1
 73
     6
  0
SEQEND
  5
505
330
4FA
100
AcDbEntity
  8
0
 62
   251
  0
POLYLINE
  5
506
330
74
100
AcDbEntity
  8
0
 62
   179
100
AcDbPolyFaceMesh
 66
     1
 10
0.0
 20
0.0
 30
0.0
 70
    64
 71
    19
 72
    17
1001
ACAD_MATERIAL_MAPPER
1070
     1
1070
     1
1070
     1
1011
-0.0000000000000115
1021
0.0
1031
-0.0000000000000029
1011
25.39999999999998
1021
0.0
1031
-0.0000000000000022
1011
-0.0000000000000345
1021
0.0
1031
25.4
1011
-0.0000000000000115
1021
1.0
1031
-0.0000000000000029
  0
VERTEX
  5
507
330
506
100
AcDbEntity
  8
0
 62
   179
100
AcDbVertex
100
AcDbPolyFaceMeshVertex
 10
30.86407369313565
 20
0.0000000000001805
 30
11.1590621246859
 70
   192
  0
VERTEX
  5
508
330
506
100
AcDbEntity
  8
0
 62
   179
100
AcDbVertex
100
AcDbPolyFaceMeshVertex
 10
9.471845246770352
 20
0.0000000000005414
 30
10.15418419825187
 70
   192
  0
VERTEX
  5
509
330
506
100
AcDbEntity
  8
0
 62
   179
100
AcDbVertex
100
AcDbPolyFaceMeshVertex
 10
28.37658805665796
 20
0.0000000000005414
 30
6.385635772953204
 70
   192
  0
VERTEX
  5
50A
330
506
100
AcDbEntity
  8
0
 62
   179
100
AcDbVertex
100
AcDbPolyFaceMeshVertex
 10
30.86407369313565
 20
0.0000000000001805
 30
17.18878515203862
 70
   192
  0
VERTEX
  5
50B
330
506
100
AcDbEntity
  8
0
 62
   179
100
AcDbVertex
100
AcDbPolyFaceMeshVertex
 10
18.42675937793432
 20
-0.0000000000004061
 30
2.365896332842854
 70
   192
  0
VERTEX
  5
50C
330
506
100
AcDbEntity
  8
0
 62
   179
100
AcDbVertex
100
AcDbPolyFaceMeshVertex
 10
-52.38750000000018
 20
-0.0000000000001805
 30
0.0
 70
   192
  0
VERTEX
  5
50D
330
506
100
AcDbEntity
  8
0
 62
   179
100
AcDbVertex
100
AcDbPolyFaceMeshVertex
 10
0.0
 20
0.0
 30
0.0
 70
   192
  0
VERTEX
  5
50E
330
506
100
AcDbEntity
  8
0
 62
   179
100
AcDbVertex
100
AcDbPolyFaceMeshVertex
 10
-70.76104620473666
 20
0.0000000000001805
 30
10.16133611973932
 70
   192
  0
VERTEX
  5
50F
330
506
100
AcDbEntity
  8
0
 62
   179
100
AcDbVertex
100
AcDbPolyFaceMeshVertex
 10
1.760702400642901
 20
0.000000000000361
 30
15.43010644679523
 70
   192
  0
VERTEX
  5
510
330
506
100
AcDbEntity
  8
0
 62
   179
100
AcDbVertex
100
AcDbPolyFaceMeshVertex
 10
-62.16718313456698
 20
0.000000000000361
 30
14.92761054998457
 70
   192
  0
VERTEX
  5
511
330
506
100
AcDbEntity
  8
0
 62
   179
100
AcDbVertex
100
AcDbPolyFaceMeshVertex
 10
-53.2123259369971
 20
0.0000000000001805
 30
15.68129746160691
 70
   192
  0
VERTEX
  5
512
330
506
100
AcDbEntity
  8
0
 62
   179
100
AcDbVertex
100
AcDbPolyFaceMeshVertex
 10
-1.448420907778053
 20
0.0000000000005414
 30
20.7856137369297
 70
   192
  0
VERTEX
  5
513
330
506
100
AcDbEntity
  8
0
 62
   179
100
AcDbVertex
100
AcDbPolyFaceMeshVertex
 10
-48.3590181306304
 20
0.0000000000001805
 30
22.87068917226892
 70
   192
  0
VERTEX
  5
514
330
506
100
AcDbEntity
  8
0
 62
   179
100
AcDbVertex
100
AcDbPolyFaceMeshVertex
 10
-3.462954809006862
 20
0.0000000000006317
 30
24.47446325345005
 70
   192
  0
VERTEX
  5
515
330
506
100
AcDbEntity
  8
0
 62
   179
100
AcDbVertex
100
AcDbPolyFaceMeshVertex
 10
-45.74992596115868
 20
0.000000000000361
 30
26.73563785550411
 70
   192
  0
VERTEX
  5
516
330
506
100
AcDbEntity
  8
0
 62
   179
100
AcDbVertex
100
AcDbPolyFaceMeshVertex
 10
-7.194154796926796
 20
0.0000000000001805
 30
26.48433297350523
 70
   192
  0
VERTEX
  5
517
330
506
100
AcDbEntity
  8
0
 62
   179
100
AcDbVertex
100
AcDbPolyFaceMeshVertex
 10
-40.77495468820331
 20
0.0000000000000902
 30
28.24301167874872
 70
   192
  0
VERTEX
  5
518
330
506
100
AcDbEntity
  8
0
 62
   179
100
AcDbVertex
100
AcDbPolyFaceMeshVertex
 10
-74.35575457948018
 20
0.0000000000002707
 30
15.43010644679523
 70
   192
  0
VERTEX
  5
519
330
506
100
AcDbEntity
  8
0
 62
   179
100
AcDbVertex
100
AcDbPolyFaceMeshVertex
 10
-74.35581151307338
 20
0.0000000000000451
 30
22.71589841539367
 70
   192
  0
VERTEX
  5
51A
330
506
100
AcDbEntity
  8
0
 62
   179
100
AcDbFaceRecord
 10
0.0
 20
0.0
 30
0.0
 70
   128
 71
    -1
 72
    -2
 73
     3
  0
VERTEX
  5
51B
330
506
100
AcDbEntity
  8
0
 62
   179
100
AcDbFaceRecord
 10
0.0
 20
0.0
 30
0.0
 70
   128
 71
    -2
 72
     1
 73
     4
  0
VERTEX
  5
51C
330
506
100
AcDbEntity
  8
0
 62
   179
100
AcDbFaceRecord
 10
0.0
 20
0.0
 30
0.0
 70
   128
 71
    -5
 72
     6
 73
     7
  0
VERTEX
  5
51D
330
506
100
AcDbEntity
  8
0
 62
   179
100
AcDbFaceRecord
 10
0.0
 20
0.0
 30
0.0
 70
   128
 71
    -6
 72
    -5
 73
     8
  0
VERTEX
  5
51E
330
506
100
AcDbEntity
  8
0
 62
   179
100
AcDbFaceRecord
 10
0.0
 20
0.0
 30
0.0
 70
   128
 71
    -8
 72
     5
 73
    -3
  0
VERTEX
  5
51F
330
506
100
AcDbEntity
  8
0
 62
   179
100
AcDbFaceRecord
 10
0.0
 20
0.0
 30
0.0
 70
   128
 71
    -8
 72
    -3
 73
    -2
  0
VERTEX
  5
520
330
506
100
AcDbEntity
  8
0
 62
   179
100
AcDbFaceRecord
 10
0.0
 20
0.0
 30
0.0
 70
   128
 71
    -8
 72
     2
 73
    -9
  0
VERTEX
  5
521
330
506
100
AcDbEntity
  8
0
 62
   179
100
AcDbFaceRecord
 10
0.0
 20
0.0
 30
0.0
 70
   128
 71
    -8
 72
    -9
 73
   -10
  0
VERTEX
  5
522
330
506
100
AcDbEntity
  8
0
 62
   179
100
AcDbFaceRecord
 10
0.0
 20
0.0
 30
0.0
 70
   128
 71
   -10
 72
    -9
 73
    11
  0
VERTEX
  5
523
330
506
100
AcDbEntity
  8
0
 62
   179
100
AcDbFaceRecord
 10
0.0
 20
0.0
 30
0.0
 70
   128
 71
   -11
 72
     9
 73
   -12
  0
VERTEX
  5
524
330
506
100
AcDbEntity
  8
0
 62
   179
100
AcDbFaceRecord
 10
0.0
 20
0.0
 30
0.0
 70
   128
 71
   -11
 72
   -12
 73
    13
  0
VERTEX
  5
525
330
506
100
AcDbEntity
  8
0
 62
   179
100
AcDbFaceRecord
 10
0.0
 20
0.0
 30
0.0
 70
   128
 71
   -13
 72
    12
 73
   -14
  0
VERTEX
  5
526
330
506
100
AcDbEntity
  8
0
 62
   179
100
AcDbFaceRecord
 10
0.0
 20
0.0
 30
0.0
 70
   128
 71
   -13
 72
   -14
 73
    15
  0
VERTEX
  5
527
330
506
100
AcDbEntity
  8
0
 62
   179
100
AcDbFaceRecord
 10
0.0
 20
0.0
 30
0.0
 70
   128
 71
   -15
 72
    14
 73
   -16
  0
VERTEX
  5
528
330
506
100
AcDbEntity
  8
0
 62
   179
100
AcDbFaceRecord
 10
0.0
 20
0.0
 30
0.0
 70
   128
 71
   -15
 72
    16
 73
    17
  0
VERTEX
  5
529
330
506
100
AcDbEntity
  8
0
 62
   179
100
AcDbFaceRecord
 10
0.0
 20
0.0
 30
0.0
 70
   128
 71
   -10
 72
    18
 73
    -8
  0
VERTEX
  5
52A
330
506
100
AcDbEntity
  8
0
 62
   179
100
AcDbFaceRecord
 10
0.0
 20
0.0
 30
0.0
 70
   128
 71
   -18
 72
    10
 73
    19
  0
SEQEND
  5
52B
330
506
100
AcDbEntity
  8
0
 62
   179
  0
POLYLINE
  5
52C
330
74
100
AcDbEntity
  8
0
 62
   251
100
AcDbPolyFaceMesh
 66
     1
 10
0.0
 20
0.0
 30
0.0
 70
    64
 71
     7
 72
     5
1001
ACAD_MATERIAL_MAPPER
1070
     1
1070
     1
1070
     1
1011
-0.0000000000001234
1021
0.0
1031
0.0000000000000417
1011
25.39999999999984
1021
0.0
1031
0.0000000000000345
1011
-0.0000000000001815
1021
0.0
1031
25.40000000000004
1011
-0.0000000000001234
1021
1.0
1031
0.0000000000000417
  0
VERTEX
  5
52D
330
52C
100
AcDbEntity
  8
0
 62
   251
100
AcDbVertex
100
AcDbPolyFaceMeshVertex
 10
-53.2123259369971
 20
0.0000000000001805
 30
15.68129746160691
 70
   192
  0
VERTEX
  5
52E
330
52C
100
AcDbEntity
  8
0
 62
   251
100
AcDbVertex
100
AcDbPolyFaceMeshVertex
 10
-74.35581151307338
 20
0.0000000000000451
 30
22.71589841539367
 70
   192
  0
VERTEX
  5
52F
330
52C
100
AcDbEntity
  8
0
 62
   251
100
AcDbVertex
100
AcDbPolyFaceMeshVertex
 10
-62.16718313456698
 20
0.000000000000361
 30
14.92761054998457
 70
   192
  0
VERTEX
  5
530
330
52C
100
AcDbEntity
  8
0
 62
   251
100
AcDbVertex
100
AcDbPolyFaceMeshVertex
 10
-48.3590181306304
 20
0.0000000000001805
 30
22.87068917226892
 70
   192
  0
VERTEX
  5
531
330
52C
100
AcDbEntity
  8
0
 62
   251
100
AcDbVertex
100
AcDbPolyFaceMeshVertex
 10
-55.69975463988177
 20
0.0000000000004963
 30
23.72089020901481
 70
   192
  0
VERTEX
  5
532
330
52C
100
AcDbEntity
  8
0
 62
   251
100
AcDbVertex
100
AcDbPolyFaceMeshVertex
 10
-74.35575457948018
 20
0.0000000000002707
 30
29.49919448718163
 70
   192
  0
VERTEX
  5
533
330
52C
100
AcDbEntity
  8
0
 62
   251
100
AcDbVertex
100
AcDbPolyFaceMeshVertex
 10
-71.12204033213686
 20
0.0
 30
34.52381185372602
 70
   192
  0
VERTEX
  5
534
330
52C
100
AcDbEntity
  8
0
 62
   251
100
AcDbFaceRecord
 10
0.0
 20
0.0
 30
0.0
 70
   128
 71
    -1
 72
     2
 73
     3
  0
VERTEX
  5
535
330
52C
100
AcDbEntity
  8
0
 62
   251
100
AcDbFaceRecord
 10
0.0
 20
0.0
 30
0.0
 70
   128
 71
    -2
 72
     1
 73
    -4
  0
VERTEX
  5
536
330
52C
100
AcDbEntity
  8
0
 62
   251
100
AcDbFaceRecord
 10
0.0
 20
0.0
 30
0.0
 70
   128
 71
    -2
 72
     4
 73
    -5
  0
VERTEX
  5
537
330
52C
100
AcDbEntity
  8
0
 62
   251
100
AcDbFaceRecord
 10
0.0
 20
0.0
 30
0.0
 70
   128
 71
    -2
 72
    -5
 73
     6
  0
VERTEX
  5
538
330
52C
100
AcDbEntity
  8
0
 62
   251
100
AcDbFaceRecord
 10
0.0
 20
0.0
 30
0.0
 70
   128
 71
    -6
 72
     5
 73
     7
  0
SEQEND
  5
539
330
52C
100
AcDbEntity
  8
0
 62
   251
  0
POLYLINE
  5
53A
330
74
100
AcDbEntity
  8
0
 62
   179
100
AcDbPolyFaceMesh
 66
     1
 10
0.0
 20
0.0
 30
0.0
 70
    64
 71
     7
 72
     5
1001
ACAD_MATERIAL_MAPPER
1070
     1
1070
     1
1070
     1
1011
0.0
1021
0.0
1031
0.0000000000000615
1011
25.39999999999999
1021
0.0
1031
0.0000000000000538
1011
0.0
1021
0.0
1031
25.40000000000004
1011
0.0
1021
1.0
1031
0.0000000000000615
  0
VERTEX
  5
53B
330
53A
100
AcDbEntity
  8
0
 62
   179
100
AcDbVertex
100
AcDbPolyFaceMeshVertex
 10
43.30138800833589
 20
-0.0000000000001805
 30
42.81459561594569
 70
   192
  0
VERTEX
  5
53C
330
53A
100
AcDbEntity
  8
0
 62
   179
100
AcDbVertex
100
AcDbPolyFaceMeshVertex
 10
28.05700066191209
 20
0.0
 30
44.19123819363242
 70
   192
  0
VERTEX
  5
53D
330
53A
100
AcDbEntity
  8
0
 62
   179
100
AcDbVertex
100
AcDbPolyFaceMeshVertex
 10
29.62035934169304
 20
0.0000000000004061
 30
34.27262083891434
 70
   192
  0
VERTEX
  5
53E
330
53A
100
AcDbEntity
  8
0
 62
   179
100
AcDbVertex
100
AcDbPolyFaceMeshVertex
 10
46.53510225567777
 20
0.0
 30
47.58802196767839
 70
   192
  0
VERTEX
  5
53F
330
53A
100
AcDbEntity
  8
0
 62
   179
100
AcDbVertex
100
AcDbPolyFaceMeshVertex
 10
28.62533092694554
 20
0.0
 30
48.34170887930074
 70
   192
  0
VERTEX
  5
540
330
53A
100
AcDbEntity
  8
0
 62
   179
100
AcDbVertex
100
AcDbPolyFaceMeshVertex
 10
47.03258799625582
 20
0.000000000000361
 30
55.62750084789928
 70
   192
  0
VERTEX
  5
541
330
53A
100
AcDbEntity
  8
0
 62
   179
100
AcDbVertex
100
AcDbPolyFaceMeshVertex
 10
43.67453078056548
 20
0.0000000000001805
 30
65.29994905877057
 70
   192
  0
VERTEX
  5
542
330
53A
100
AcDbEntity
  8
0
 62
   179
100
AcDbFaceRecord
 10
0.0
 20
0.0
 30
0.0
 70
   128
 71
    -1
 72
     2
 73
     3
  0
VERTEX
  5
543
330
53A
100
AcDbEntity
  8
0
 62
   179
100
AcDbFaceRecord
 10
0.0
 20
0.0
 30
0.0
 70
   128
 71
    -2
 72
     1
 73
    -4
  0
VERTEX
  5
544
330
53A
100
AcDbEntity
  8
0
 62
   179
100
AcDbFaceRecord
 10
0.0
 20
0.0
 30
0.0
 70
   128
 71
    -2
 72
    -4
 73
     5
  0
VERTEX
  5
545
330
53A
100
AcDbEntity
  8
0
 62
   179
100
AcDbFaceRecord
 10
0.0
 20
0.0
 30
0.0
 70
   128
 71
    -5
 72
     4
 73
    -6
  0
VERTEX
  5
546
330
53A
100
AcDbEntity
  8
0
 62
   179
100
AcDbFaceRecord
 10
0.0
 20
0.0
 30
0.0
 70
   128
 71
    -5
 72
     6
 73
     7
  0
SEQEND
  5
547
330
53A
100
AcDbEntity
  8
0
 62
   179
  0
LINE
  5
548
330
74
100
AcDbEntity
  8
0
 62
   178
100
AcDbLine
 10
28.62533092694554
 20
0.0
 30
48.34170887930074
 11
43.67453078056548
 21
0.0000000000001805
 31
65.29994905877057
  0
POLYLINE
  5
549
330
74
100
AcDbEntity
  8
0
 62
   251
100
AcDbPolyFaceMesh
 66
     1
 10
0.0
 20
0.0
 30
0.0
 70
    64
 71
    23
 72
    21
1001
ACAD_MATERIAL_MAPPER
1070
     1
1070
     1
1070
     1
1011
-0.0000000000000014
1021
0.0
1031
0.0
1011
25.40000000000001
1021
0.0
1031
0.0
1011
-0.0000000000000014
1021
0.0
1031
25.40000000000001
1011
-0.0000000000000014
1021
1.0
1031
0.0
  0
VERTEX
  5
54A
330
549
100
AcDbEntity
  8
0
 62
   251
100
AcDbVertex
100
AcDbPolyFaceMeshVertex
 10
12.20807375353706
 20
0.0000000000001805
 30
21.20841072496196
 70
   192
  0
VERTEX
  5
54B
330
549
100
AcDbEntity
  8
0
 62
   251
100
AcDbVertex
100
AcDbPolyFaceMeshVertex
 10
-3.462954809006862
 20
0.0000000000006317
 30
24.47446325345005
 70
   192
  0
VERTEX
  5
54C
330
549
100
AcDbEntity
  8
0
 62
   251
100
AcDbVertex
100
AcDbPolyFaceMeshVertex
 10
-1.448420907778053
 20
0.0000000000005414
 30
20.7856137369297
 70
   192
  0
VERTEX
  5
54D
330
549
100
AcDbEntity
  8
0
 62
   251
100
AcDbVertex
100
AcDbPolyFaceMeshVertex
 10
30.86407369313565
 20
0.0000000000001805
 30
28.74550757555929
 70
   192
  0
VERTEX
  5
54E
330
549
100
AcDbEntity
  8
0
 62
   251
100
AcDbVertex
100
AcDbPolyFaceMeshVertex
 10
-7.194154796926796
 20
0.0000000000001805
 30
26.48433297350523
 70
   192
  0
VERTEX
  5
54F
330
549
100
AcDbEntity
  8
0
 62
   251
100
AcDbVertex
100
AcDbPolyFaceMeshVertex
 10
-40.77495468820331
 20
0.0000000000000902
 30
28.24301167874872
 70
   192
  0
VERTEX
  5
550
330
549
100
AcDbEntity
  8
0
 62
   251
100
AcDbVertex
100
AcDbPolyFaceMeshVertex
 10
-45.74992596115868
 20
0.000000000000361
 30
26.73563785550411
 70
   192
  0
VERTEX
  5
551
330
549
100
AcDbEntity
  8
0
 62
   251
100
AcDbVertex
100
AcDbPolyFaceMeshVertex
 10
-55.69975463988177
 20
0.0000000000004963
 30
23.72089020901481
 70
   192
  0
VERTEX
  5
552
330
549
100
AcDbEntity
  8
0
 62
   251
100
AcDbVertex
100
AcDbPolyFaceMeshVertex
 10
-48.3590181306304
 20
0.0000000000001805
 30
22.87068917226892
 70
   192
  0
VERTEX
  5
553
330
549
100
AcDbEntity
  8
0
 62
   251
100
AcDbVertex
100
AcDbPolyFaceMeshVertex
 10
-71.12204033213686
 20
0.0
 30
34.52381185372602
 70
   192
  0
VERTEX
  5
554
330
549
100
AcDbEntity
  8
0
 62
   251
100
AcDbVertex
100
AcDbPolyFaceMeshVertex
 10
29.62035934169304
 20
0.0000000000004061
 30
34.27262083891434
 70
   192
  0
VERTEX
  5
555
330
549
100
AcDbEntity
  8
0
 62
   251
100
AcDbVertex
100
AcDbPolyFaceMeshVertex
 10
28.05700066191209
 20
0.0
 30
44.19123819363242
 70
   192
  0
VERTEX
  5
556
330
549
100
AcDbEntity
  8
0
 62
   251
100
AcDbVertex
100
AcDbPolyFaceMeshVertex
 10
-68.88335449954103
 20
0.0
 30
42.81459561594569
 70
   192
  0
VERTEX
  5
557
330
549
100
AcDbEntity
  8
0
 62
   251
100
AcDbVertex
100
AcDbPolyFaceMeshVertex
 10
-57.68975453578285
 20
0.0
 30
71.45526759352917
 70
   192
  0
VERTEX
  5
558
330
549
100
AcDbEntity
  8
0
 62
   251
100
AcDbVertex
100
AcDbPolyFaceMeshVertex
 10
28.62533092694554
 20
0.0
 30
48.34170887930074
 70
   192
  0
VERTEX
  5
559
330
549
100
AcDbEntity
  8
0
 62
   251
100
AcDbVertex
100
AcDbPolyFaceMeshVertex
 10
30.36613248381062
 20
0.0000000000005414
 30
61.15518344718993
 70
   192
  0
VERTEX
  5
55A
330
549
100
AcDbEntity
  8
0
 62
   251
100
AcDbVertex
100
AcDbPolyFaceMeshVertex
 10
40.31641663128159
 20
-0.0000000000001805
 30
74.97251113682896
 70
   192
  0
VERTEX
  5
55B
330
549
100
AcDbEntity
  8
0
 62
   251
100
AcDbVertex
100
AcDbPolyFaceMeshVertex
 10
-50.20833873969127
 20
0.0000000000002256
 30
97.7530083286982
 70
   192
  0
VERTEX
  5
55C
330
549
100
AcDbEntity
  8
0
 62
   251
100
AcDbVertex
100
AcDbPolyFaceMeshVertex
 10
44.04761661920153
 20
-0.0000000000003158
 30
87.78553023596963
 70
   192
  0
VERTEX
  5
55D
330
549
100
AcDbEntity
  8
0
 62
   251
100
AcDbVertex
100
AcDbPolyFaceMeshVertex
 10
44.5451592933715
 20
0.0
 30
98.08606985105737
 70
   192
  0
VERTEX
  5
55E
330
549
100
AcDbEntity
  8
0
 62
   251
100
AcDbVertex
100
AcDbPolyFaceMeshVertex
 10
-17.89026902010854
 20
0.0000000000002256
 30
109.8940971565768
 70
   192
  0
VERTEX
  5
55F
330
549
100
AcDbEntity
  8
0
 62
   251
100
AcDbVertex
100
AcDbPolyFaceMeshVertex
 10
35.83898803249603
 20
0.0
 30
102.6083051879784
 70
   192
  0
VERTEX
  5
560
330
549
100
AcDbEntity
  8
0
 62
   251
100
AcDbVertex
100
AcDbPolyFaceMeshVertex
 10
8.974359506193741
 20
0.0000000000004061
 30
112.4064627734427
 70
   192
  0
VERTEX
  5
561
330
549
100
AcDbEntity
  8
0
 62
   251
100
AcDbFaceRecord
 10
0.0
 20
0.0
 30
0.0
 70
   128
 71
    -1
 72
     2
 73
     3
  0
VERTEX
  5
562
330
549
100
AcDbEntity
  8
0
 62
   251
100
AcDbFaceRecord
 10
0.0
 20
0.0
 30
0.0
 70
   128
 71
    -2
 72
     1
 73
    -4
  0
VERTEX
  5
563
330
549
100
AcDbEntity
  8
0
 62
   251
100
AcDbFaceRecord
 10
0.0
 20
0.0
 30
0.0
 70
   128
 71
    -2
 72
    -4
 73
     5
  0
VERTEX
  5
564
330
549
100
AcDbEntity
  8
0
 62
   251
100
AcDbFaceRecord
 10
0.0
 20
0.0
 30
0.0
 70
   128
 71
    -5
 72
    -4
 73
     6
  0
VERTEX
  5
565
330
549
100
AcDbEntity
  8
0
 62
   251
100
AcDbFaceRecord
 10
0.0
 20
0.0
 30
0.0
 70
   128
 71
    -7
 72
     8
 73
     9
  0
VERTEX
  5
566
330
549
100
AcDbEntity
  8
0
 62
   251
100
AcDbFaceRecord
 10
0.0
 20
0.0
 30
0.0
 70
   128
 71
    -8
 72
    -7
 73
    10
  0
VERTEX
  5
567
330
549
100
AcDbEntity
  8
0
 62
   251
100
AcDbFaceRecord
 10
0.0
 20
0.0
 30
0.0
 70
   128
 71
   -10
 72
     7
 73
    -6
  0
VERTEX
  5
568
330
549
100
AcDbEntity
  8
0
 62
   251
100
AcDbFaceRecord
 10
0.0
 20
0.0
 30
0.0
 70
   128
 71
   -10
 72
    -6
 73
    -4
  0
VERTEX
  5
569
330
549
100
AcDbEntity
  8
0
 62
   251
100
AcDbFaceRecord
 10
0.0
 20
0.0
 30
0.0
 70
   128
 71
   -10
 72
     4
 73
   -11
  0
VERTEX
  5
56A
330
549
100
AcDbEntity
  8
0
 62
   251
100
AcDbFaceRecord
 10
0.0
 20
0.0
 30
0.0
 70
   128
 71
   -10
 72
    11
 73
   -12
  0
VERTEX
  5
56B
330
549
100
AcDbEntity
  8
0
 62
   251
100
AcDbFaceRecord
 10
0.0
 20
0.0
 30
0.0
 70
   128
 71
   -10
 72
   -12
 73
    13
  0
VERTEX
  5
56C
330
549
100
AcDbEntity
  8
0
 62
   251
100
AcDbFaceRecord
 10
0.0
 20
0.0
 30
0.0
 70
   128
 71
   -13
 72
   -12
 73
    14
  0
VERTEX
  5
56D
330
549
100
AcDbEntity
  8
0
 62
   251
100
AcDbFaceRecord
 10
0.0
 20
0.0
 30
0.0
 70
   128
 71
   -14
 72
    12
 73
   -15
  0
VERTEX
  5
56E
330
549
100
AcDbEntity
  8
0
 62
   251
100
AcDbFaceRecord
 10
0.0
 20
0.0
 30
0.0
 70
   128
 71
   -14
 72
    15
 73
   -16
  0
VERTEX
  5
56F
330
549
100
AcDbEntity
  8
0
 62
   251
100
AcDbFaceRecord
 10
0.0
 20
0.0
 30
0.0
 70
   128
 71
   -14
 72
    16
 73
   -17
  0
VERTEX
  5
570
330
549
100
AcDbEntity
  8
0
 62
   251
100
AcDbFaceRecord
 10
0.0
 20
0.0
 30
0.0
 70
   128
 71
   -14
 72
   -17
 73
    18
  0
VERTEX
  5
571
330
549
100
AcDbEntity
  8
0
 62
   251
100
AcDbFaceRecord
 10
0.0
 20
0.0
 30
0.0
 70
   128
 71
   -18
 72
    17
 73
   -19
  0
VERTEX
  5
572
330
549
100
AcDbEntity
  8
0
 62
   251
100
AcDbFaceRecord
 10
0.0
 20
0.0
 30
0.0
 70
   128
 71
   -18
 72
    19
 73
   -20
  0
VERTEX
  5
573
330
549
100
AcDbEntity
  8
0
 62
   251
100
AcDbFaceRecord
 10
0.0
 20
0.0
 30
0.0
 70
   128
 71
   -18
 72
   -20
 73
    21
  0
VERTEX
  5
574
330
549
100
AcDbEntity
  8
0
 62
   251
100
AcDbFaceRecord
 10
0.0
 20
0.0
 30
0.0
 70
   128
 71
   -21
 72
    20
 73
   -22
  0
VERTEX
  5
575
330
549
100
AcDbEntity
  8
0
 62
   251
100
AcDbFaceRecord
 10
0.0
 20
0.0
 30
0.0
 70
   128
 71
   -21
 72
    22
 73
    23
  0
SEQEND
  5
576
330
549
100
AcDbEntity
  8
0
 62
   251
  0
LINE
  5
577
330
74
100
AcDbEntity
  8
0
 62
   178
100
AcDbLine
 10
30.86407369313565
 20
0.0000000000001805
 30
28.74550757555929
 11
29.62035934169304
 21
0.0000000000004061
 31
34.27262083891434
  0
POLYLINE
  5
578
330
74
100
AcDbEntity
  8
0
 62
   251
100
AcDbPolyFaceMesh
 66
     1
 10
0.0
 20
0.0
 30
0.0
 70
    64
 71
     4
 72
     2
1001
ACAD_MATERIAL_MAPPER
1070
     1
1070
     1
1070
     1
1011
-0.0000000000000281
1021
0.0
1031
-0.0000000000000842
1011
25.39999999999997
1021
0.0
1031
-0.0000000000000702
1011
-0.0000000000000351
1021
0.0
1031
25.39999999999991
1011
-0.0000000000000281
1021
1.0
1031
-0.0000000000000842
  0
VERTEX
  5
579
330
578
100
AcDbEntity
  8
0
 62
   251
100
AcDbVertex
100
AcDbPolyFaceMeshVertex
 10
43.67453078056548
 20
0.0000000000001805
 30
65.29994905877057
 70
   192
  0
VERTEX
  5
57A
330
578
100
AcDbEntity
  8
0
 62
   251
100
AcDbVertex
100
AcDbPolyFaceMeshVertex
 10
30.36613248381062
 20
0.0000000000005414
 30
61.15518344718993
 70
   192
  0
VERTEX
  5
57B
330
578
100
AcDbEntity
  8
0
 62
   251
100
AcDbVertex
100
AcDbPolyFaceMeshVertex
 10
28.62533092694554
 20
0.0
 30
48.34170887930074
 70
   192
  0
VERTEX
  5
57C
330
578
100
AcDbEntity
  8
0
 62
   251
100
AcDbVertex
100
AcDbPolyFaceMeshVertex
 10
40.31641663128159
 20
-0.0000000000001805
 30
74.97251113682896
 70
   192
  0
VERTEX
  5
57D
330
578
100
AcDbEntity
  8
0
 62
   251
100
AcDbFaceRecord
 10
0.0
 20
0.0
 30
0.0
 70
   128
 71
    -1
 72
     2
 73
     3
  0
VERTEX
  5
57E
330
578
100
AcDbEntity
  8
0
 62
   251
100
AcDbFaceRecord
 10
0.0
 20
0.0
 30
0.0
 70
   128
 71
    -2
 72
     1
 73
     4
  0
SEQEND
  5
57F
330
578
100
AcDbEntity
  8
0
 62
   251
  0
LINE
  5
580
330
74
100
AcDbEntity
  8
0
 62
   178
100
AcDbLine
 10
28.62533092694554
 20
0.0
 30
48.34170887930074
 11
43.67453078056548
 21
0.0000000000001805
 31
65.29994905877057
  0
LINE
  5
581
330
74
100
AcDbEntity
  8
0
 62
   178
100
AcDbLine
 10
43.67453078056548
 20
0.0000000000001805
 30
65.29994905877057
 11
40.31641663128159
 21
-0.0000000000001805
 31
74.97251113682896
  0
POLYLINE
  5
582
330
74
100
AcDbEntity
  8
0
 62
    43
100
AcDbPolyFaceMesh
 66
     1
 10
0.0
 20
0.0
 30
0.0
 70
    64
 71
    33
 72
    31
1001
ACAD_MATERIAL_MAPPER
1070
     1
1070
     1
1070
     1
1011
-0.0000000005503891
1021
0.0
1031
0.0000000029354083
1011
25.39999999944847
1021
0.0
1031
0.0000000029411416
1011
-0.0000000005532557
1021
0.0
1031
25.40000000294717
1011
-0.0000000005503891
1021
1.0
1031
0.0000000029354083
  0
VERTEX
  5
583
330
582
100
AcDbEntity
  8
0
 62
    43
100
AcDbVertex
100
AcDbPolyFaceMeshVertex
 10
-143.6803496781007
 20
0.0000000000002256
 30
687.6728760030056
 70
   192
  0
VERTEX
  5
584
330
582
100
AcDbEntity
  8
0
 62
    43
100
AcDbVertex
100
AcDbPolyFaceMeshVertex
 10
-153.3570969588693
 20
0.0000000000002256
 30
690.2674591916194
 70
   192
  0
VERTEX
  5
585
330
582
100
AcDbEntity
  8
0
 62
    43
100
AcDbVertex
100
AcDbPolyFaceMeshVertex
 10
-143.9530567716663
 20
0.0000000000004061
 30
687.5807388159105
 70
   192
  0
VERTEX
  5
586
330
582
100
AcDbEntity
  8
0
 62
    43
100
AcDbVertex
100
AcDbPolyFaceMeshVertex
 10
-143.1395144730993
 20
0.0000000000004061
 30
687.9198036644221
 70
   192
  0
VERTEX
  5
587
330
582
100
AcDbEntity
  8
0
 62
    43
100
AcDbVertex
100
AcDbPolyFaceMeshVertex
 10
-142.4107122888338
 20
0.0000000000009926
 30
688.2772959503541
 70
   192
  0
VERTEX
  5
588
330
582
100
AcDbEntity
  8
0
 62
    43
100
AcDbVertex
100
AcDbPolyFaceMeshVertex
 10
-141.5741042574744
 20
0.0000000000004512
 30
688.701127010994
 70
   192
  0
VERTEX
  5
589
330
582
100
AcDbEntity
  8
0
 62
    43
100
AcDbVertex
100
AcDbPolyFaceMeshVertex
 10
-140.7098515111967
 20
0.0000000000005414
 30
689.1470709965367
 70
   192
  0
VERTEX
  5
58A
330
582
100
AcDbEntity
  8
0
 62
    43
100
AcDbVertex
100
AcDbPolyFaceMeshVertex
 10
-139.89811518216
 20
0.0000000000005414
 30
689.5709020571762
 70
   192
  0
VERTEX
  5
58B
330
582
100
AcDbEntity
  8
0
 62
    43
100
AcDbVertex
100
AcDbPolyFaceMeshVertex
 10
-139.2190564025454
 20
0.0000000000010829
 30
689.9283943431071
 70
   192
  0
VERTEX
  5
58C
330
582
100
AcDbEntity
  8
0
 62
    43
100
AcDbVertex
100
AcDbPolyFaceMeshVertex
 10
-138.752836304518
 20
0.000000000001128
 30
690.175322004524
 70
   192
  0
VERTEX
  5
58D
330
582
100
AcDbEntity
  8
0
 62
    43
100
AcDbVertex
100
AcDbPolyFaceMeshVertex
 10
-138.5796160202488
 20
0.0000000000001805
 30
690.2674591916194
 70
   192
  0
VERTEX
  5
58E
330
582
100
AcDbEntity
  8
0
 62
    43
100
AcDbVertex
100
AcDbPolyFaceMeshVertex
 10
-137.2360828749856
 20
0.0000000000001805
 30
695.3051319616605
 70
   192
  0
VERTEX
  5
58F
330
582
100
AcDbEntity
  8
0
 62
    43
100
AcDbVertex
100
AcDbPolyFaceMeshVertex
 10
-156.4721751817011
 20
0.0000000000009024
 30
692.1272125472608
 70
   192
  0
VERTEX
  5
590
330
582
100
AcDbEntity
  8
0
 62
    43
100
AcDbVertex
100
AcDbPolyFaceMeshVertex
 10
-140.1705935638709
 20
0.0000000000011731
 30
713.1196296796408
 70
   192
  0
VERTEX
  5
591
330
582
100
AcDbEntity
  8
0
 62
    43
100
AcDbVertex
100
AcDbPolyFaceMeshVertex
 10
-149.9104017324574
 20
0.0000000000009475
 30
709.4250288351078
 70
   192
  0
VERTEX
  5
592
330
582
100
AcDbEntity
  8
0
 62
    43
100
AcDbVertex
100
AcDbPolyFaceMeshVertex
 10
-143.8647331886529
 20
0.0000000000009926
 30
708.7534928723538
 70
   192
  0
VERTEX
  5
593
330
582
100
AcDbEntity
  8
0
 62
    43
100
AcDbVertex
100
AcDbPolyFaceMeshVertex
 10
-155.619610465251
 20
0.000000000000767
 30
714.1270489287098
 70
   192
  0
VERTEX
  5
594
330
582
100
AcDbEntity
  8
0
 62
    43
100
AcDbVertex
100
AcDbPolyFaceMeshVertex
 10
-143.1934278357803
 20
0.0000000000009475
 30
723.8667417923525
 70
   192
  0
VERTEX
  5
595
330
582
100
AcDbEntity
  8
0
 62
    43
100
AcDbVertex
100
AcDbPolyFaceMeshVertex
 10
-209.2777945148736
 20
0.0000000000004061
 30
716.2039369978833
 70
   192
  0
VERTEX
  5
596
330
582
100
AcDbEntity
  8
0
 62
    43
100
AcDbVertex
100
AcDbPolyFaceMeshVertex
 10
-214.0747174730961
 20
0.0000000000013536
 30
718.5861215165563
 70
   192
  0
VERTEX
  5
597
330
582
100
AcDbEntity
  8
0
 62
    43
100
AcDbVertex
100
AcDbPolyFaceMeshVertex
 10
-223.4794494899321
 20
0.0000000000005866
 30
752.443110655195
 70
   192
  0
VERTEX
  5
598
330
582
100
AcDbEntity
  8
0
 62
    43
100
AcDbVertex
100
AcDbPolyFaceMeshVertex
 10
-143.1934278357803
 20
0.0000000000009475
 30
742.6744762519471
 70
   192
  0
VERTEX
  5
599
330
582
100
AcDbEntity
  8
0
 62
    43
100
AcDbVertex
100
AcDbPolyFaceMeshVertex
 10
-147.5593340331891
 20
0.0000000000010829
 30
772.2292075193155
 70
   192
  0
VERTEX
  5
59A
330
582
100
AcDbEntity
  8
0
 62
    43
100
AcDbVertex
100
AcDbPolyFaceMeshVertex
 10
-222.4776801828617
 20
0.0000000000004061
 30
807.9600172161133
 70
   192
  0
VERTEX
  5
59B
330
582
100
AcDbEntity
  8
0
 62
    43
100
AcDbVertex
100
AcDbPolyFaceMeshVertex
 10
-153.604771967116
 20
0.0000000000002256
 30
801.1121722140538
 70
   192
  0
VERTEX
  5
59C
330
582
100
AcDbEntity
  8
0
 62
    43
100
AcDbVertex
100
AcDbPolyFaceMeshVertex
 10
-170.0864598991235
 20
0.0
 30
826.8400478722464
 70
   192
  0
VERTEX
  5
59D
330
582
100
AcDbEntity
  8
0
 62
    43
100
AcDbVertex
100
AcDbPolyFaceMeshVertex
 10
-194.3304763017109
 20
0.0000000000009926
 30
698.9998481111318
 70
   192
  0
VERTEX
  5
59E
330
582
100
AcDbEntity
  8
0
 62
    43
100
AcDbVertex
100
AcDbPolyFaceMeshVertex
 10
-161.6736597802978
 20
0.0000000000004512
 30
690.4010205225347
 70
   192
  0
VERTEX
  5
59F
330
582
100
AcDbEntity
  8
0
 62
    43
100
AcDbVertex
100
AcDbPolyFaceMeshVertex
 10
-137.5611572181718
 20
0.0000000000005866
 30
695.8666461454713
 70
   192
  0
VERTEX
  5
5A0
330
582
100
AcDbEntity
  8
0
 62
    43
100
AcDbVertex
100
AcDbPolyFaceMeshVertex
 10
-140.9304531096428
 20
0.0000000000009024
 30
701.6865684868403
 70
   192
  0
VERTEX
  5
5A1
330
582
100
AcDbEntity
  8
0
 62
    43
100
AcDbVertex
100
AcDbPolyFaceMeshVertex
 10
-196.6560616095334
 20
0.000000000001128
 30
705.5219566614779
 70
   192
  0
VERTEX
  5
5A2
330
582
100
AcDbEntity
  8
0
 62
    43
100
AcDbVertex
100
AcDbPolyFaceMeshVertex
 10
-148.9907295417063
 20
0.0000000000010829
 30
704.7089415389892
 70
   192
  0
VERTEX
  5
5A3
330
582
100
AcDbEntity
  8
0
 62
    43
100
AcDbVertex
100
AcDbPolyFaceMeshVertex
 10
-207.0931187421935
 20
0.0000000000013536
 30
708.7393103648993
 70
   192
  0
VERTEX
  5
5A4
330
582
100
AcDbEntity
  8
0
 62
    43
100
AcDbFaceRecord
 10
0.0
 20
0.0
 30
0.0
 70
   128
 71
    -1
 72
     2
 73
     3
  0
VERTEX
  5
5A5
330
582
100
AcDbEntity
  8
0
 62
    43
100
AcDbFaceRecord
 10
0.0
 20
0.0
 30
0.0
 70
   128
 71
    -2
 72
     1
 73
    -4
  0
VERTEX
  5
5A6
330
582
100
AcDbEntity
  8
0
 62
    43
100
AcDbFaceRecord
 10
0.0
 20
0.0
 30
0.0
 70
   128
 71
    -2
 72
     4
 73
    -5
  0
VERTEX
  5
5A7
330
582
100
AcDbEntity
  8
0
 62
    43
100
AcDbFaceRecord
 10
0.0
 20
0.0
 30
0.0
 70
   128
 71
    -2
 72
     5
 73
    -6
  0
VERTEX
  5
5A8
330
582
100
AcDbEntity
  8
0
 62
    43
100
AcDbFaceRecord
 10
0.0
 20
0.0
 30
0.0
 70
   128
 71
    -2
 72
     6
 73
    -7
  0
VERTEX
  5
5A9
330
582
100
AcDbEntity
  8
0
 62
    43
100
AcDbFaceRecord
 10
0.0
 20
0.0
 30
0.0
 70
   128
 71
    -2
 72
     7
 73
    -8
  0
VERTEX
  5
5AA
330
582
100
AcDbEntity
  8
0
 62
    43
100
AcDbFaceRecord
 10
0.0
 20
0.0
 30
0.0
 70
   128
 71
    -2
 72
     8
 73
    -9
  0
VERTEX
  5
5AB
330
582
100
AcDbEntity
  8
0
 62
    43
100
AcDbFaceRecord
 10
0.0
 20
0.0
 30
0.0
 70
   128
 71
    -2
 72
     9
 73
   -10
  0
VERTEX
  5
5AC
330
582
100
AcDbEntity
  8
0
 62
    43
100
AcDbFaceRecord
 10
0.0
 20
0.0
 30
0.0
 70
   128
 71
    -2
 72
    10
 73
   -11
  0
VERTEX
  5
5AD
330
582
100
AcDbEntity
  8
0
 62
    43
100
AcDbFaceRecord
 10
0.0
 20
0.0
 30
0.0
 70
   128
 71
    -2
 72
    11
 73
   -12
  0
VERTEX
  5
5AE
330
582
100
AcDbEntity
  8
0
 62
    43
100
AcDbFaceRecord
 10
0.0
 20
0.0
 30
0.0
 70
   128
 71
    -2
 72
   -12
 73
    13
  0
VERTEX
  5
5AF
330
582
100
AcDbEntity
  8
0
 62
    43
100
AcDbFaceRecord
 10
0.0
 20
0.0
 30
0.0
 70
   128
 71
   -14
 72
    15
 73
    16
  0
VERTEX
  5
5B0
330
582
100
AcDbEntity
  8
0
 62
    43
100
AcDbFaceRecord
 10
0.0
 20
0.0
 30
0.0
 70
   128
 71
   -15
 72
   -14
 73
    17
  0
VERTEX
  5
5B1
330
582
100
AcDbEntity
  8
0
 62
    43
100
AcDbFaceRecord
 10
0.0
 20
0.0
 30
0.0
 70
   128
 71
   -17
 72
    14
 73
   -18
  0
VERTEX
  5
5B2
330
582
100
AcDbEntity
  8
0
 62
    43
100
AcDbFaceRecord
 10
0.0
 20
0.0
 30
0.0
 70
   128
 71
   -17
 72
   -18
 73
   -19
  0
VERTEX
  5
5B3
330
582
100
AcDbEntity
  8
0
 62
    43
100
AcDbFaceRecord
 10
0.0
 20
0.0
 30
0.0
 70
   128
 71
   -19
 72
   -18
 73
    20
  0
VERTEX
  5
5B4
330
582
100
AcDbEntity
  8
0
 62
    43
100
AcDbFaceRecord
 10
0.0
 20
0.0
 30
0.0
 70
   128
 71
   -20
 72
   -18
 73
    21
  0
VERTEX
  5
5B5
330
582
100
AcDbEntity
  8
0
 62
    43
100
AcDbFaceRecord
 10
0.0
 20
0.0
 30
0.0
 70
   128
 71
   -21
 72
    18
 73
   -22
  0
VERTEX
  5
5B6
330
582
100
AcDbEntity
  8
0
 62
    43
100
AcDbFaceRecord
 10
0.0
 20
0.0
 30
0.0
 70
   128
 71
   -21
 72
    22
 73
   -23
  0
VERTEX
  5
5B7
330
582
100
AcDbEntity
  8
0
 62
    43
100
AcDbFaceRecord
 10
0.0
 20
0.0
 30
0.0
 70
   128
 71
   -21
 72
   -23
 73
    24
  0
VERTEX
  5
5B8
330
582
100
AcDbEntity
  8
0
 62
    43
100
AcDbFaceRecord
 10
0.0
 20
0.0
 30
0.0
 70
   128
 71
   -24
 72
    23
 73
   -25
  0
VERTEX
  5
5B9
330
582
100
AcDbEntity
  8
0
 62
    43
100
AcDbFaceRecord
 10
0.0
 20
0.0
 30
0.0
 70
   128
 71
   -24
 72
    25
 73
    26
  0
VERTEX
  5
5BA
330
582
100
AcDbEntity
  8
0
 62
    43
100
AcDbFaceRecord
 10
0.0
 20
0.0
 30
0.0
 70
   128
 71
   -13
 72
    27
 73
    28
  0
VERTEX
  5
5BB
330
582
100
AcDbEntity
  8
0
 62
    43
100
AcDbFaceRecord
 10
0.0
 20
0.0
 30
0.0
 70
   128
 71
   -27
 72
   -13
 73
   -12
  0
VERTEX
  5
5BC
330
582
100
AcDbEntity
  8
0
 62
    43
100
AcDbFaceRecord
 10
0.0
 20
0.0
 30
0.0
 70
   128
 71
   -27
 72
    12
 73
   -29
  0
VERTEX
  5
5BD
330
582
100
AcDbEntity
  8
0
 62
    43
100
AcDbFaceRecord
 10
0.0
 20
0.0
 30
0.0
 70
   128
 71
   -27
 72
    29
 73
   -30
  0
VERTEX
  5
5BE
330
582
100
AcDbEntity
  8
0
 62
    43
100
AcDbFaceRecord
 10
0.0
 20
0.0
 30
0.0
 70
   128
 71
   -27
 72
   -30
 73
    31
  0
VERTEX
  5
5BF
330
582
100
AcDbEntity
  8
0
 62
    43
100
AcDbFaceRecord
 10
0.0
 20
0.0
 30
0.0
 70
   128
 71
   -31
 72
    30
 73
   -32
  0
VERTEX
  5
5C0
330
582
100
AcDbEntity
  8
0
 62
    43
100
AcDbFaceRecord
 10
0.0
 20
0.0
 30
0.0
 70
   128
 71
   -31
 72
    32
 73
   -17
  0
VERTEX
  5
5C1
330
582
100
AcDbEntity
  8
0
 62
    43
100
AcDbFaceRecord
 10
0.0
 20
0.0
 30
0.0
 70
   128
 71
   -31
 72
   -17
 73
    33
  0
VERTEX
  5
5C2
330
582
100
AcDbEntity
  8
0
 62
    43
100
AcDbFaceRecord
 10
0.0
 20
0.0
 30
0.0
 70
   128
 71
   -33
 72
   -17
 73
    19
  0
SEQEND
  5
5C3
330
582
100
AcDbEntity
  8
0
 62
    43
  0
LINE
  5
5C4
330
74
100
AcDbEntity
  8
0
 62
   178
100
AcDbLine
 10
-222.4776801828617
 20
0.0000000000004061
 30
807.9600172161133
 11
-170.0864598991235
 21
0.0
 31
826.8400478722464
  0
POLYLINE
  5
5C5
330
74
100
AcDbEntity
  8
0
 62
     0
100
AcDbPolyFaceMesh
 66
     1
 10
0.0
 20
0.0
 30
0.0
 70
    64
 71
    75
 72
    76
1001
ACAD_MATERIAL_MAPPER
1070
     1
1070
     1
1070
     1
1011
-0.0000000000004894
1021
0.0
1031
-0.0000000000019577
1011
25.39999999999951
1021
0.0
1031
-0.0000000000019424
1011
-0.0000000000004894
1021
0.0
1031
25.3999999999981
1011
-0.0000000000004894
1021
1.0
1031
-0.0000000000019577
  0
VERTEX
  5
5C6
330
5C5
100
AcDbEntity
  8
0
 62
     0
100
AcDbVertex
100
AcDbPolyFaceMeshVertex
 10
215.7095670437291
 20
-0.0000000000016694
 30
1362.711794252283
 70
   192
  0
VERTEX
  5
5C7
330
5C5
100
AcDbEntity
  8
0
 62
     0
100
AcDbVertex
100
AcDbPolyFaceMeshVertex
 10
15.11817745505234
 20
-0.0000000000011731
 30
1303.518159112327
 70
   192
  0
VERTEX
  5
5C8
330
5C5
100
AcDbEntity
  8
0
 62
     0
100
AcDbVertex
100
AcDbPolyFaceMeshVertex
 10
228.8178936903166
 20
-0.0000000000011731
 30
1270.951374584821
 70
   192
  0
VERTEX
  5
5C9
330
5C5
100
AcDbEntity
  8
0
 62
     0
100
AcDbVertex
100
AcDbPolyFaceMeshVertex
 10
58.23807353597765
 20
-0.0000000000003158
 30
1340.540268817173
 70
   192
  0
VERTEX
  5
5CA
330
5C5
100
AcDbEntity
  8
0
 62
     0
100
AcDbVertex
100
AcDbPolyFaceMeshVertex
 10
81.75843614353329
 20
-0.0000000000014438
 30
1367.544397188918
 70
   192
  0
VERTEX
  5
5CB
330
5C5
100
AcDbEntity
  8
0
 62
     0
100
AcDbVertex
100
AcDbPolyFaceMeshVertex
 10
203.9807486832702
 20
-0.0000000000014889
 30
1383.409664918856
 70
   192
  0
VERTEX
  5
5CC
330
5C5
100
AcDbEntity
  8
0
 62
     0
100
AcDbVertex
100
AcDbPolyFaceMeshVertex
 10
100.0619421063673
 20
0.000000000000361
 30
1393.735798700524
 70
   192
  0
VERTEX
  5
5CD
330
5C5
100
AcDbEntity
  8
0
 62
     0
100
AcDbVertex
100
AcDbPolyFaceMeshVertex
 10
189.8827590278906
 20
-0.0000000000013536
 30
1397.507654574239
 70
   192
  0
VERTEX
  5
5CE
330
5C5
100
AcDbEntity
  8
0
 62
     0
100
AcDbVertex
100
AcDbPolyFaceMeshVertex
 10
106.2611968284637
 20
0.0000000000005414
 30
1405.657810485711
 70
   192
  0
VERTEX
  5
5CF
330
5C5
100
AcDbEntity
  8
0
 62
     0
100
AcDbVertex
100
AcDbPolyFaceMeshVertex
 10
176.3453517402427
 20
0.0000000000004061
 30
1407.595458376848
 70
   192
  0
VERTEX
  5
5D0
330
5C5
100
AcDbEntity
  8
0
 62
     0
100
AcDbVertex
100
AcDbPolyFaceMeshVertex
 10
109.5995054125321
 20
0.0000000000002707
 30
1420.4417485009
 70
   192
  0
VERTEX
  5
5D1
330
5C5
100
AcDbEntity
  8
0
 62
     0
100
AcDbVertex
100
AcDbPolyFaceMeshVertex
 10
124.9995085488002
 20
-0.0000000000012633
 30
1427.071545129038
 70
   192
  0
VERTEX
  5
5D2
330
5C5
100
AcDbEntity
  8
0
 62
     0
100
AcDbVertex
100
AcDbPolyFaceMeshVertex
 10
123.6302463111275
 20
-0.0000000000012633
 30
1426.482507936939
 70
   192
  0
VERTEX
  5
5D3
330
5C5
100
AcDbEntity
  8
0
 62
     0
100
AcDbVertex
100
AcDbPolyFaceMeshVertex
 10
109.5995054125321
 20
0.0000000000002707
 30
1431.14144145759
 70
   192
  0
VERTEX
  5
5D4
330
5C5
100
AcDbEntity
  8
0
 62
     0
100
AcDbVertex
100
AcDbPolyFaceMeshVertex
 10
116.537332192443
 20
-0.0000000000010829
 30
1429.172747995902
 70
   192
  0
VERTEX
  5
5D5
330
5C5
100
AcDbEntity
  8
0
 62
     0
100
AcDbVertex
100
AcDbPolyFaceMeshVertex
 10
107.1257106377965
 20
-0.0000000000004963
 30
1435.182050250565
 70
   192
  0
VERTEX
  5
5D6
330
5C5
100
AcDbEntity
  8
0
 62
     0
100
AcDbVertex
100
AcDbPolyFaceMeshVertex
 10
231.4307036003478
 20
-0.0000000000009024
 30
1053.993832612668
 70
   192
  0
VERTEX
  5
5D7
330
5C5
100
AcDbEntity
  8
0
 62
     0
100
AcDbVertex
100
AcDbPolyFaceMeshVertex
 10
223.1711802342745
 20
-0.0000000000016243
 30
1049.79114055593
 70
   192
  0
VERTEX
  5
5D8
330
5C5
100
AcDbEntity
  8
0
 62
     0
100
AcDbVertex
100
AcDbPolyFaceMeshVertex
 10
226.7285682018011
 20
-0.0000000000014438
 30
1038.54493101623
 70
   192
  0
VERTEX
  5
5D9
330
5C5
100
AcDbEntity
  8
0
 62
     0
100
AcDbVertex
100
AcDbPolyFaceMeshVertex
 10
209.0652352584041
 20
-0.0000000000005414
 30
1055.500810508481
 70
   192
  0
VERTEX
  5
5DA
330
5C5
100
AcDbEntity
  8
0
 62
     0
100
AcDbVertex
100
AcDbPolyFaceMeshVertex
 10
226.6626137768899
 20
-0.0000000000014889
 30
1108.452758708915
 70
   192
  0
VERTEX
  5
5DB
330
5C5
100
AcDbEntity
  8
0
 62
     0
100
AcDbVertex
100
AcDbPolyFaceMeshVertex
 10
192.2731464315189
 20
-0.0000000000014438
 30
1057.179938677712
 70
   192
  0
VERTEX
  5
5DC
330
5C5
100
AcDbEntity
  8
0
 62
     0
100
AcDbVertex
100
AcDbPolyFaceMeshVertex
 10
147.1003612226998
 20
-0.0000000000019401
 30
1061.565446714694
 70
   192
  0
VERTEX
  5
5DD
330
5C5
100
AcDbEntity
  8
0
 62
     0
100
AcDbVertex
100
AcDbPolyFaceMeshVertex
 10
146.6087009642543
 20
-0.0000000000009024
 30
1068.783997094543
 70
   192
  0
VERTEX
  5
5DE
330
5C5
100
AcDbEntity
  8
0
 62
     0
100
AcDbVertex
100
AcDbPolyFaceMeshVertex
 10
149.5904866779932
 20
-0.0000000000025267
 30
1135.434863837377
 70
   192
  0
VERTEX
  5
5DF
330
5C5
100
AcDbEntity
  8
0
 62
     0
100
AcDbVertex
100
AcDbPolyFaceMeshVertex
 10
235.2025587537782
 20
-0.0000000000015792
 30
1124.507645410478
 70
   192
  0
VERTEX
  5
5E0
330
5C5
100
AcDbEntity
  8
0
 62
     0
100
AcDbVertex
100
AcDbPolyFaceMeshVertex
 10
232.4698317075448
 20
-0.0000000000019401
 30
1140.221056536203
 70
   192
  0
VERTEX
  5
5E1
330
5C5
100
AcDbEntity
  8
0
 62
     0
100
AcDbVertex
100
AcDbPolyFaceMeshVertex
 10
148.7602911196423
 20
-0.0000000000017597
 30
1173.614577473898
 70
   192
  0
VERTEX
  5
5E2
330
5C5
100
AcDbEntity
  8
0
 62
     0
100
AcDbVertex
100
AcDbPolyFaceMeshVertex
 10
234.5194922971629
 20
-0.0000000000021206
 30
1152.518155286846
 70
   192
  0
VERTEX
  5
5E3
330
5C5
100
AcDbEntity
  8
0
 62
     0
100
AcDbVertex
100
AcDbPolyFaceMeshVertex
 10
234.0756103561808
 20
-0.0000000000023011
 30
1167.464460054216
 70
   192
  0
VERTEX
  5
5E4
330
5C5
100
AcDbEntity
  8
0
 62
     0
100
AcDbVertex
100
AcDbPolyFaceMeshVertex
 10
-139.3501028924851
 20
-0.0000000000018048
 30
1179.348783778652
 70
   192
  0
VERTEX
  5
5E5
330
5C5
100
AcDbEntity
  8
0
 62
     0
100
AcDbVertex
100
AcDbPolyFaceMeshVertex
 10
-211.9077917608652
 20
-0.0000000000014438
 30
1253.325227484142
 70
   192
  0
VERTEX
  5
5E6
330
5C5
100
AcDbEntity
  8
0
 62
     0
100
AcDbVertex
100
AcDbPolyFaceMeshVertex
 10
-193.1260009124708
 20
0.0000000000001354
 30
1354.243280684894
 70
   192
  0
VERTEX
  5
5E7
330
5C5
100
AcDbEntity
  8
0
 62
     0
100
AcDbVertex
100
AcDbPolyFaceMeshVertex
 10
-20.16167462664711
 20
-0.0000000000010829
 30
1327.038233457534
 70
   192
  0
VERTEX
  5
5E8
330
5C5
100
AcDbEntity
  8
0
 62
     0
100
AcDbVertex
100
AcDbPolyFaceMeshVertex
 10
-50.65037589715828
 20
-0.0000000000018048
 30
1358.833627945406
 70
   192
  0
VERTEX
  5
5E9
330
5C5
100
AcDbEntity
  8
0
 62
     0
100
AcDbVertex
100
AcDbPolyFaceMeshVertex
 10
-181.9124803228765
 20
0.0000000000002707
 30
1379.451707594425
 70
   192
  0
VERTEX
  5
5EA
330
5C5
100
AcDbEntity
  8
0
 62
     0
100
AcDbVertex
100
AcDbPolyFaceMeshVertex
 10
-75.911151248836
 20
0.0000000000001805
 30
1390.874448995217
 70
   192
  0
VERTEX
  5
5EB
330
5C5
100
AcDbEntity
  8
0
 62
     0
100
AcDbVertex
100
AcDbPolyFaceMeshVertex
 10
-172.34251632894
 20
-0.0000000000008573
 30
1393.464486179859
 70
   192
  0
VERTEX
  5
5EC
330
5C5
100
AcDbEntity
  8
0
 62
     0
100
AcDbVertex
100
AcDbPolyFaceMeshVertex
 10
-89.26846398571735
 20
-0.0000000000014438
 30
1415.422871237455
 70
   192
  0
VERTEX
  5
5ED
330
5C5
100
AcDbEntity
  8
0
 62
     0
100
AcDbVertex
100
AcDbPolyFaceMeshVertex
 10
-150.3618847058744
 20
-0.0000000000013536
 30
1409.122614730266
 70
   192
  0
VERTEX
  5
5EE
330
5C5
100
AcDbEntity
  8
0
 62
     0
100
AcDbVertex
100
AcDbPolyFaceMeshVertex
 10
-133.6949830873173
 20
-0.0000000000014438
 30
1415.422871237455
 70
   192
  0
VERTEX
  5
5EF
330
5C5
100
AcDbEntity
  8
0
 62
     0
100
AcDbVertex
100
AcDbPolyFaceMeshVertex
 10
-91.08541194493576
 20
0.0
 30
1428.334107320514
 70
   192
  0
VERTEX
  5
5F0
330
5C5
100
AcDbEntity
  8
0
 62
     0
100
AcDbVertex
100
AcDbPolyFaceMeshVertex
 10
-149.9041752657674
 20
-0.0000000000018048
 30
1026.177207990655
 70
   192
  0
VERTEX
  5
5F1
330
5C5
100
AcDbEntity
  8
0
 62
     0
100
AcDbVertex
100
AcDbPolyFaceMeshVertex
 10
-166.6348065603518
 20
-0.0000000000017597
 30
1029.401076423109
 70
   192
  0
VERTEX
  5
5F2
330
5C5
100
AcDbEntity
  8
0
 62
     0
100
AcDbVertex
100
AcDbPolyFaceMeshVertex
 10
-152.9270095376736
 20
-0.0000000000012633
 30
1018.788409868873
 70
   192
  0
VERTEX
  5
5F3
330
5C5
100
AcDbEntity
  8
0
 62
     0
100
AcDbVertex
100
AcDbPolyFaceMeshVertex
 10
-143.4371824761067
 20
-0.0000000000019401
 30
1079.971458767996
 70
   192
  0
VERTEX
  5
5F4
330
5C5
100
AcDbEntity
  8
0
 62
     0
100
AcDbVertex
100
AcDbPolyFaceMeshVertex
 10
-182.1057314000724
 20
-0.0000000000020304
 30
1034.557916847254
 70
   192
  0
VERTEX
  5
5F5
330
5C5
100
AcDbEntity
  8
0
 62
     0
100
AcDbVertex
100
AcDbPolyFaceMeshVertex
 10
-200.9534766733769
 20
-0.0000000000019853
 30
1036.924550713243
 70
   192
  0
VERTEX
  5
5F6
330
5C5
100
AcDbEntity
  8
0
 62
     0
100
AcDbVertex
100
AcDbPolyFaceMeshVertex
 10
-225.6818891232735
 20
-0.0000000000018048
 30
1059.226601338921
 70
   192
  0
VERTEX
  5
5F7
330
5C5
100
AcDbEntity
  8
0
 62
     0
100
AcDbVertex
100
AcDbPolyFaceMeshVertex
 10
-227.7840134599776
 20
-0.000000000001895
 30
1073.240360016331
 70
   192
  0
VERTEX
  5
5F8
330
5C5
100
AcDbEntity
  8
0
 62
     0
100
AcDbVertex
100
AcDbPolyFaceMeshVertex
 10
-220.8227083982785
 20
-0.0000000000014889
 30
1126.710776873446
 70
   192
  0
VERTEX
  5
5F9
330
5C5
100
AcDbEntity
  8
0
 62
     0
100
AcDbVertex
100
AcDbPolyFaceMeshVertex
 10
-137.9023148105618
 20
-0.0000000000027072
 30
1143.86711400156
 70
   192
  0
VERTEX
  5
5FA
330
5C5
100
AcDbEntity
  8
0
 62
     0
100
AcDbVertex
100
AcDbPolyFaceMeshVertex
 10
-223.6284234706845
 20
-0.0000000000024365
 30
1142.466274301784
 70
   192
  0
VERTEX
  5
5FB
330
5C5
100
AcDbEntity
  8
0
 62
     0
100
AcDbVertex
100
AcDbPolyFaceMeshVertex
 10
106.9378062085172
 20
0.0
 30
860.0893799841482
 70
   192
  0
VERTEX
  5
5FC
330
5C5
100
AcDbEntity
  8
0
 62
     0
100
AcDbVertex
100
AcDbPolyFaceMeshVertex
 10
-72.48774762003927
 20
0.0000000000006317
 30
870.4691305622919
 70
   192
  0
VERTEX
  5
5FD
330
5C5
100
AcDbEntity
  8
0
 62
     0
100
AcDbVertex
100
AcDbPolyFaceMeshVertex
 10
29.8292427490087
 20
0.0000000000003158
 30
858.6060972532312
 70
   192
  0
VERTEX
  5
5FE
330
5C5
100
AcDbEntity
  8
0
 62
     0
100
AcDbVertex
100
AcDbPolyFaceMeshVertex
 10
151.7005670554659
 20
0.0000000000000451
 30
864.4942592508253
 70
   192
  0
VERTEX
  5
5FF
330
5C5
100
AcDbEntity
  8
0
 62
     0
100
AcDbVertex
100
AcDbPolyFaceMeshVertex
 10
155.1099034817495
 20
-0.0000000000028876
 30
903.5116056142389
 70
   192
  0
VERTEX
  5
600
330
5C5
100
AcDbEntity
  8
0
 62
     0
100
AcDbVertex
100
AcDbPolyFaceMeshVertex
 10
-134.7680959679154
 20
0.0000000000005866
 30
882.3319332614758
 70
   192
  0
VERTEX
  5
601
330
5C5
100
AcDbEntity
  8
0
 62
     0
100
AcDbVertex
100
AcDbPolyFaceMeshVertex
 10
-173.1054891080531
 20
0.0000000000004512
 30
894.22909683238
 70
   192
  0
VERTEX
  5
602
330
5C5
100
AcDbEntity
  8
0
 62
     0
100
AcDbVertex
100
AcDbPolyFaceMeshVertex
 10
-170.899936241373
 20
-0.0000000000019853
 30
928.1944726133594
 70
   192
  0
VERTEX
  5
603
330
5C5
100
AcDbEntity
  8
0
 62
     0
100
AcDbVertex
100
AcDbPolyFaceMeshVertex
 10
152.858689859364
 20
-0.0000000000015792
 30
1005.208716633047
 70
   192
  0
VERTEX
  5
604
330
5C5
100
AcDbEntity
  8
0
 62
     0
100
AcDbVertex
100
AcDbPolyFaceMeshVertex
 10
-157.9646823077142
 20
-0.0000000000021206
 30
976.8072077096824
 70
   192
  0
VERTEX
  5
605
330
5C5
100
AcDbEntity
  8
0
 62
     0
100
AcDbVertex
100
AcDbPolyFaceMeshVertex
 10
-156.3990718505915
 20
-0.0000000000006768
 30
989.9061370037688
 70
   192
  0
VERTEX
  5
606
330
5C5
100
AcDbEntity
  8
0
 62
     0
100
AcDbVertex
100
AcDbPolyFaceMeshVertex
 10
-138.902649430107
 20
-0.0000000000017145
 30
1064.763351377508
 70
   192
  0
VERTEX
  5
607
330
5C5
100
AcDbEntity
  8
0
 62
     0
100
AcDbVertex
100
AcDbPolyFaceMeshVertex
 10
150.420451626464
 20
-0.0000000000012633
 30
1038.325621022898
 70
   192
  0
VERTEX
  5
608
330
5C5
100
AcDbEntity
  8
0
 62
     0
100
AcDbVertex
100
AcDbPolyFaceMeshVertex
 10
-133.722115995221
 20
-0.0000000000027072
 30
1111.445828015271
 70
   192
  0
VERTEX
  5
609
330
5C5
100
AcDbEntity
  8
0
 62
     0
100
AcDbVertex
100
AcDbPolyFaceMeshVertex
 10
144.7089367948969
 20
-0.0000000000010829
 30
1096.677241848296
 70
   192
  0
VERTEX
  5
60A
330
5C5
100
AcDbEntity
  8
0
 62
     0
100
AcDbVertex
100
AcDbPolyFaceMeshVertex
 10
144.7089367948969
 20
-0.0000000000010829
 30
1140.37343201264
 70
   192
  0
VERTEX
  5
60B
330
5C5
100
AcDbEntity
  8
0
 62
     0
100
AcDbVertex
100
AcDbPolyFaceMeshVertex
 10
-134.3747799085135
 20
-0.0000000000013085
 30
1143.315866634063
 70
   192
  0
VERTEX
  5
60C
330
5C5
100
AcDbEntity
  8
0
 62
     0
100
AcDbVertex
100
AcDbPolyFaceMeshVertex
 10
161.7108806101378
 20
-0.0000000000023462
 30
1050.462849476092
 70
   192
  0
VERTEX
  5
60D
330
5C5
100
AcDbEntity
  8
0
 62
     0
100
AcDbVertex
100
AcDbPolyFaceMeshVertex
 10
175.8163643662564
 20
-0.0000000000019853
 30
1055.164696612287
 70
   192
  0
VERTEX
  5
60E
330
5C5
100
AcDbEntity
  8
0
 62
     0
100
AcDbVertex
100
AcDbPolyFaceMeshVertex
 10
-218.4176779877138
 20
-0.0000000000017597
 30
1034.90930864782
 70
   192
  0
VERTEX
  5
60F
330
5C5
100
AcDbEntity
  8
0
 62
     0
100
AcDbVertex
100
AcDbPolyFaceMeshVertex
 10
-229.8367872829342
 20
-0.0000000000012182
 30
1025.169558131708
 70
   192
  0
VERTEX
  5
610
330
5C5
100
AcDbEntity
  8
0
 62
     0
100
AcDbVertex
100
AcDbPolyFaceMeshVertex
 10
-159.9133357710613
 20
-0.0000000000012633
 30
979.1101932495325
 70
   192
  0
VERTEX
  5
611
330
5C5
100
AcDbEntity
  8
0
 62
     0
100
AcDbFaceRecord
 10
0.0
 20
0.0
 30
0.0
 70
   128
 71
    -1
 72
    -2
 73
     3
  0
VERTEX
  5
612
330
5C5
100
AcDbEntity
  8
0
 62
     0
100
AcDbFaceRecord
 10
0.0
 20
0.0
 30
0.0
 70
   128
 71
    -2
 72
    -1
 73
     4
  0
VERTEX
  5
613
330
5C5
100
AcDbEntity
  8
0
 62
     0
100
AcDbFaceRecord
 10
0.0
 20
0.0
 30
0.0
 70
   128
 71
    -4
 72
    -1
 73
     5
  0
VERTEX
  5
614
330
5C5
100
AcDbEntity
  8
0
 62
     0
100
AcDbFaceRecord
 10
0.0
 20
0.0
 30
0.0
 70
   128
 71
    -5
 72
     1
 73
    -6
  0
VERTEX
  5
615
330
5C5
100
AcDbEntity
  8
0
 62
     0
100
AcDbFaceRecord
 10
0.0
 20
0.0
 30
0.0
 70
   128
 71
    -5
 72
    -6
 73
     7
  0
VERTEX
  5
616
330
5C5
100
AcDbEntity
  8
0
 62
     0
100
AcDbFaceRecord
 10
0.0
 20
0.0
 30
0.0
 70
   128
 71
    -7
 72
     6
 73
    -8
  0
VERTEX
  5
617
330
5C5
100
AcDbEntity
  8
0
 62
     0
100
AcDbFaceRecord
 10
0.0
 20
0.0
 30
0.0
 70
   128
 71
    -7
 72
    -8
 73
     9
  0
VERTEX
  5
618
330
5C5
100
AcDbEntity
  8
0
 62
     0
100
AcDbFaceRecord
 10
0.0
 20
0.0
 30
0.0
 70
   128
 71
    -9
 72
     8
 73
   -10
  0
VERTEX
  5
619
330
5C5
100
AcDbEntity
  8
0
 62
     0
100
AcDbFaceRecord
 10
0.0
 20
0.0
 30
0.0
 70
   128
 71
    -9
 72
   -10
 73
    11
  0
VERTEX
  5
61A
330
5C5
100
AcDbEntity
  8
0
 62
     0
100
AcDbFaceRecord
 10
0.0
 20
0.0
 30
0.0
 70
   128
 71
   -11
 72
    10
 73
   -12
  0
VERTEX
  5
61B
330
5C5
100
AcDbEntity
  8
0
 62
     0
100
AcDbFaceRecord
 10
0.0
 20
0.0
 30
0.0
 70
   128
 71
   -11
 72
    12
 73
   -13
  0
VERTEX
  5
61C
330
5C5
100
AcDbEntity
  8
0
 62
     0
100
AcDbFaceRecord
 10
0.0
 20
0.0
 30
0.0
 70
   128
 71
   -13
 72
    14
 73
   -11
  0
VERTEX
  5
61D
330
5C5
100
AcDbEntity
  8
0
 62
     0
100
AcDbFaceRecord
 10
0.0
 20
0.0
 30
0.0
 70
   128
 71
   -14
 72
    13
 73
   -15
  0
VERTEX
  5
61E
330
5C5
100
AcDbEntity
  8
0
 62
     0
100
AcDbFaceRecord
 10
0.0
 20
0.0
 30
0.0
 70
   128
 71
   -14
 72
    15
 73
    16
  0
VERTEX
  5
61F
330
5C5
100
AcDbEntity
  8
0
 62
     0
100
AcDbFaceRecord
 10
0.0
 20
0.0
 30
0.0
 70
   128
 71
   -17
 72
    18
 73
    19
  0
VERTEX
  5
620
330
5C5
100
AcDbEntity
  8
0
 62
     0
100
AcDbFaceRecord
 10
0.0
 20
0.0
 30
0.0
 70
   128
 71
   -18
 72
   -17
 73
    20
  0
VERTEX
  5
621
330
5C5
100
AcDbEntity
  8
0
 62
     0
100
AcDbFaceRecord
 10
0.0
 20
0.0
 30
0.0
 70
   128
 71
   -20
 72
    17
 73
   -21
  0
VERTEX
  5
622
330
5C5
100
AcDbEntity
  8
0
 62
     0
100
AcDbFaceRecord
 10
0.0
 20
0.0
 30
0.0
 70
   128
 71
   -20
 72
   -21
 73
    22
  0
VERTEX
  5
623
330
5C5
100
AcDbEntity
  8
0
 62
     0
100
AcDbFaceRecord
 10
0.0
 20
0.0
 30
0.0
 70
   128
 71
   -22
 72
   -21
 73
   -23
  0
VERTEX
  5
624
330
5C5
100
AcDbEntity
  8
0
 62
     0
100
AcDbFaceRecord
 10
0.0
 20
0.0
 30
0.0
 70
   128
 71
   -23
 72
   -21
 73
   -24
  0
VERTEX
  5
625
330
5C5
100
AcDbEntity
  8
0
 62
     0
100
AcDbFaceRecord
 10
0.0
 20
0.0
 30
0.0
 70
   128
 71
   -24
 72
   -21
 73
    25
  0
VERTEX
  5
626
330
5C5
100
AcDbEntity
  8
0
 62
     0
100
AcDbFaceRecord
 10
0.0
 20
0.0
 30
0.0
 70
   128
 71
   -25
 72
    21
 73
   -26
  0
VERTEX
  5
627
330
5C5
100
AcDbEntity
  8
0
 62
     0
100
AcDbFaceRecord
 10
0.0
 20
0.0
 30
0.0
 70
   128
 71
   -25
 72
    26
 73
   -27
  0
VERTEX
  5
628
330
5C5
100
AcDbEntity
  8
0
 62
     0
100
AcDbFaceRecord
 10
0.0
 20
0.0
 30
0.0
 70
   128
 71
   -25
 72
   -27
 73
    28
  0
VERTEX
  5
629
330
5C5
100
AcDbEntity
  8
0
 62
     0
100
AcDbFaceRecord
 10
0.0
 20
0.0
 30
0.0
 70
   128
 71
   -28
 72
    27
 73
   -29
  0
VERTEX
  5
62A
330
5C5
100
AcDbEntity
  8
0
 62
     0
100
AcDbFaceRecord
 10
0.0
 20
0.0
 30
0.0
 70
   128
 71
   -28
 72
    29
 73
   -30
  0
VERTEX
  5
62B
330
5C5
100
AcDbEntity
  8
0
 62
     0
100
AcDbFaceRecord
 10
0.0
 20
0.0
 30
0.0
 70
   128
 71
   -28
 72
    30
 73
    -3
  0
VERTEX
  5
62C
330
5C5
100
AcDbEntity
  8
0
 62
     0
100
AcDbFaceRecord
 10
0.0
 20
0.0
 30
0.0
 70
   128
 71
   -28
 72
    -3
 73
   -31
  0
VERTEX
  5
62D
330
5C5
100
AcDbEntity
  8
0
 62
     0
100
AcDbFaceRecord
 10
0.0
 20
0.0
 30
0.0
 70
   128
 71
   -31
 72
    -3
 73
   -32
  0
VERTEX
  5
62E
330
5C5
100
AcDbEntity
  8
0
 62
     0
100
AcDbFaceRecord
 10
0.0
 20
0.0
 30
0.0
 70
   128
 71
   -32
 72
    -3
 73
    -2
  0
VERTEX
  5
62F
330
5C5
100
AcDbEntity
  8
0
 62
     0
100
AcDbFaceRecord
 10
0.0
 20
0.0
 30
0.0
 70
   128
 71
   -32
 72
    -2
 73
    33
  0
VERTEX
  5
630
330
5C5
100
AcDbEntity
  8
0
 62
     0
100
AcDbFaceRecord
 10
0.0
 20
0.0
 30
0.0
 70
   128
 71
   -33
 72
     2
 73
   -34
  0
VERTEX
  5
631
330
5C5
100
AcDbEntity
  8
0
 62
     0
100
AcDbFaceRecord
 10
0.0
 20
0.0
 30
0.0
 70
   128
 71
   -33
 72
    34
 73
   -35
  0
VERTEX
  5
632
330
5C5
100
AcDbEntity
  8
0
 62
     0
100
AcDbFaceRecord
 10
0.0
 20
0.0
 30
0.0
 70
   128
 71
   -33
 72
   -35
 73
    36
  0
VERTEX
  5
633
330
5C5
100
AcDbEntity
  8
0
 62
     0
100
AcDbFaceRecord
 10
0.0
 20
0.0
 30
0.0
 70
   128
 71
   -36
 72
    35
 73
   -37
  0
VERTEX
  5
634
330
5C5
100
AcDbEntity
  8
0
 62
     0
100
AcDbFaceRecord
 10
0.0
 20
0.0
 30
0.0
 70
   128
 71
   -36
 72
   -37
 73
    38
  0
VERTEX
  5
635
330
5C5
100
AcDbEntity
  8
0
 62
     0
100
AcDbFaceRecord
 10
0.0
 20
0.0
 30
0.0
 70
   128
 71
   -38
 72
    37
 73
   -39
  0
VERTEX
  5
636
330
5C5
100
AcDbEntity
  8
0
 62
     0
100
AcDbFaceRecord
 10
0.0
 20
0.0
 30
0.0
 70
   128
 71
   -38
 72
   -39
 73
    40
  0
VERTEX
  5
637
330
5C5
100
AcDbEntity
  8
0
 62
     0
100
AcDbFaceRecord
 10
0.0
 20
0.0
 30
0.0
 70
   128
 71
   -40
 72
   -39
 73
    41
  0
VERTEX
  5
638
330
5C5
100
AcDbEntity
  8
0
 62
     0
100
AcDbFaceRecord
 10
0.0
 20
0.0
 30
0.0
 70
   128
 71
   -41
 72
    39
 73
    42
  0
VERTEX
  5
639
330
5C5
100
AcDbEntity
  8
0
 62
     0
100
AcDbFaceRecord
 10
0.0
 20
0.0
 30
0.0
 70
   128
 71
   -43
 72
    44
 73
    45
  0
VERTEX
  5
63A
330
5C5
100
AcDbEntity
  8
0
 62
     0
100
AcDbFaceRecord
 10
0.0
 20
0.0
 30
0.0
 70
   128
 71
   -44
 72
    43
 73
   -46
  0
VERTEX
  5
63B
330
5C5
100
AcDbEntity
  8
0
 62
     0
100
AcDbFaceRecord
 10
0.0
 20
0.0
 30
0.0
 70
   128
 71
   -44
 72
   -46
 73
    47
  0
VERTEX
  5
63C
330
5C5
100
AcDbEntity
  8
0
 62
     0
100
AcDbFaceRecord
 10
0.0
 20
0.0
 30
0.0
 70
   128
 71
   -47
 72
   -46
 73
    48
  0
VERTEX
  5
63D
330
5C5
100
AcDbEntity
  8
0
 62
     0
100
AcDbFaceRecord
 10
0.0
 20
0.0
 30
0.0
 70
   128
 71
   -48
 72
   -46
 73
   -49
  0
VERTEX
  5
63E
330
5C5
100
AcDbEntity
  8
0
 62
     0
100
AcDbFaceRecord
 10
0.0
 20
0.0
 30
0.0
 70
   128
 71
   -49
 72
   -46
 73
    50
  0
VERTEX
  5
63F
330
5C5
100
AcDbEntity
  8
0
 62
     0
100
AcDbFaceRecord
 10
0.0
 20
0.0
 30
0.0
 70
   128
 71
   -50
 72
   -46
 73
    51
  0
VERTEX
  5
640
330
5C5
100
AcDbEntity
  8
0
 62
     0
100
AcDbFaceRecord
 10
0.0
 20
0.0
 30
0.0
 70
   128
 71
   -51
 72
    46
 73
   -52
  0
VERTEX
  5
641
330
5C5
100
AcDbEntity
  8
0
 62
     0
100
AcDbFaceRecord
 10
0.0
 20
0.0
 30
0.0
 70
   128
 71
   -51
 72
   -52
 73
    53
  0
VERTEX
  5
642
330
5C5
100
AcDbEntity
  8
0
 62
     0
100
AcDbFaceRecord
 10
0.0
 20
0.0
 30
0.0
 70
   128
 71
   -53
 72
   -52
 73
    32
  0
VERTEX
  5
643
330
5C5
100
AcDbEntity
  8
0
 62
     0
100
AcDbFaceRecord
 10
0.0
 20
0.0
 30
0.0
 70
   128
 71
   -32
 72
    52
 73
   -31
  0
VERTEX
  5
644
330
5C5
100
AcDbEntity
  8
0
 62
     0
100
AcDbFaceRecord
 10
0.0
 20
0.0
 30
0.0
 70
   128
 71
   -54
 72
    55
 73
    56
  0
VERTEX
  5
645
330
5C5
100
AcDbEntity
  8
0
 62
     0
100
AcDbFaceRecord
 10
0.0
 20
0.0
 30
0.0
 70
   128
 71
   -55
 72
    54
 73
   -57
  0
VERTEX
  5
646
330
5C5
100
AcDbEntity
  8
0
 62
     0
100
AcDbFaceRecord
 10
0.0
 20
0.0
 30
0.0
 70
   128
 71
   -55
 72
    57
 73
   -58
  0
VERTEX
  5
647
330
5C5
100
AcDbEntity
  8
0
 62
     0
100
AcDbFaceRecord
 10
0.0
 20
0.0
 30
0.0
 70
   128
 71
   -55
 72
   -58
 73
    59
  0
VERTEX
  5
648
330
5C5
100
AcDbEntity
  8
0
 62
     0
100
AcDbFaceRecord
 10
0.0
 20
0.0
 30
0.0
 70
   128
 71
   -59
 72
   -58
 73
    60
  0
VERTEX
  5
649
330
5C5
100
AcDbEntity
  8
0
 62
     0
100
AcDbFaceRecord
 10
0.0
 20
0.0
 30
0.0
 70
   128
 71
   -60
 72
   -58
 73
    61
  0
VERTEX
  5
64A
330
5C5
100
AcDbEntity
  8
0
 62
     0
100
AcDbFaceRecord
 10
0.0
 20
0.0
 30
0.0
 70
   128
 71
   -61
 72
    58
 73
   -62
  0
VERTEX
  5
64B
330
5C5
100
AcDbEntity
  8
0
 62
     0
100
AcDbFaceRecord
 10
0.0
 20
0.0
 30
0.0
 70
   128
 71
   -61
 72
   -62
 73
   -63
  0
VERTEX
  5
64C
330
5C5
100
AcDbEntity
  8
0
 62
     0
100
AcDbFaceRecord
 10
0.0
 20
0.0
 30
0.0
 70
   128
 71
   -63
 72
   -62
 73
    64
  0
VERTEX
  5
64D
330
5C5
100
AcDbEntity
  8
0
 62
     0
100
AcDbFaceRecord
 10
0.0
 20
0.0
 30
0.0
 70
   128
 71
   -64
 72
   -62
 73
    65
  0
VERTEX
  5
64E
330
5C5
100
AcDbEntity
  8
0
 62
     0
100
AcDbFaceRecord
 10
0.0
 20
0.0
 30
0.0
 70
   128
 71
   -65
 72
    62
 73
   -66
  0
VERTEX
  5
64F
330
5C5
100
AcDbEntity
  8
0
 62
     0
100
AcDbFaceRecord
 10
0.0
 20
0.0
 30
0.0
 70
   128
 71
   -65
 72
   -66
 73
   -23
  0
VERTEX
  5
650
330
5C5
100
AcDbEntity
  8
0
 62
     0
100
AcDbFaceRecord
 10
0.0
 20
0.0
 30
0.0
 70
   128
 71
   -65
 72
   -23
 73
   -24
  0
VERTEX
  5
651
330
5C5
100
AcDbEntity
  8
0
 62
     0
100
AcDbFaceRecord
 10
0.0
 20
0.0
 30
0.0
 70
   128
 71
   -65
 72
   -24
 73
    67
  0
VERTEX
  5
652
330
5C5
100
AcDbEntity
  8
0
 62
     0
100
AcDbFaceRecord
 10
0.0
 20
0.0
 30
0.0
 70
   128
 71
   -67
 72
    24
 73
   -68
  0
VERTEX
  5
653
330
5C5
100
AcDbEntity
  8
0
 62
     0
100
AcDbFaceRecord
 10
0.0
 20
0.0
 30
0.0
 70
   128
 71
   -67
 72
    68
 73
   -69
  0
VERTEX
  5
654
330
5C5
100
AcDbEntity
  8
0
 62
     0
100
AcDbFaceRecord
 10
0.0
 20
0.0
 30
0.0
 70
   128
 71
   -67
 72
   -69
 73
    70
  0
VERTEX
  5
655
330
5C5
100
AcDbEntity
  8
0
 62
     0
100
AcDbFaceRecord
 10
0.0
 20
0.0
 30
0.0
 70
   128
 71
   -70
 72
    69
 73
   -28
  0
VERTEX
  5
656
330
5C5
100
AcDbEntity
  8
0
 62
     0
100
AcDbFaceRecord
 10
0.0
 20
0.0
 30
0.0
 70
   128
 71
   -70
 72
   -28
 73
    31
  0
VERTEX
  5
657
330
5C5
100
AcDbEntity
  8
0
 62
     0
100
AcDbFaceRecord
 10
0.0
 20
0.0
 30
0.0
 70
   128
 71
   -71
 72
   -23
 73
    66
  0
VERTEX
  5
658
330
5C5
100
AcDbEntity
  8
0
 62
     0
100
AcDbFaceRecord
 10
0.0
 20
0.0
 30
0.0
 70
   128
 71
   -23
 72
    71
 73
   -72
  0
VERTEX
  5
659
330
5C5
100
AcDbEntity
  8
0
 62
     0
100
AcDbFaceRecord
 10
0.0
 20
0.0
 30
0.0
 70
   128
 71
   -23
 72
    72
 73
   -22
  0
VERTEX
  5
65A
330
5C5
100
AcDbEntity
  8
0
 62
     0
100
AcDbFaceRecord
 10
0.0
 20
0.0
 30
0.0
 70
   128
 71
   -73
 72
    49
 73
    74
  0
VERTEX
  5
65B
330
5C5
100
AcDbEntity
  8
0
 62
     0
100
AcDbFaceRecord
 10
0.0
 20
0.0
 30
0.0
 70
   128
 71
   -49
 72
    73
 73
   -48
  0
VERTEX
  5
65C
330
5C5
100
AcDbEntity
  8
0
 62
     0
100
AcDbFaceRecord
 10
0.0
 20
0.0
 30
0.0
 70
   128
 71
    75
 72
   -61
 73
    63
  0
SEQEND
  5
65D
330
5C5
100
AcDbEntity
  8
0
 62
     0
  0
LINE
  5
65E
330
74
100
AcDbEntity
  8
0
 62
   178
100
AcDbLine
 10
152.858689859364
 20
-0.0000000000015792
 30
1005.208716633047
 11
150.420451626464
 21
-0.0000000000012633
 31
1038.325621022898
  0
POLYLINE
  5
65F
330
74
100
AcDbEntity
  8
0
 62
    43
100
AcDbPolyFaceMesh
 66
     1
 10
0.0
 20
0.0
 30
0.0
 70
    64
 71
    55
 72
    53
1001
ACAD_MATERIAL_MAPPER
1070
     1
1070
     1
1070
     1
1011
0.0000000000969083
1021
0.0
1031
0.0000000004080351
1011
25.40000000009692
1021
0.0
1031
0.0000000004079555
1011
0.0000000000969083
1021
0.0
1031
25.40000000040877
1011
0.0000000000969083
1021
1.0
1031
0.0000000004080351
  0
VERTEX
  5
660
330
65F
100
AcDbEntity
  8
0
 62
    43
100
AcDbVertex
100
AcDbPolyFaceMeshVertex
 10
159.2055349029508
 20
0.000000000000361
 30
655.8440921942852
 70
   192
  0
VERTEX
  5
661
330
65F
100
AcDbEntity
  8
0
 62
    43
100
AcDbVertex
100
AcDbPolyFaceMeshVertex
 10
148.1224241989772
 20
0.0000000000002256
 30
654.8366729452149
 70
   192
  0
VERTEX
  5
662
330
65F
100
AcDbEntity
  8
0
 62
    43
100
AcDbVertex
100
AcDbPolyFaceMeshVertex
 10
154.5038607241622
 20
0.000000000000361
 30
652.8217191421379
 70
   192
  0
VERTEX
  5
663
330
65F
100
AcDbEntity
  8
0
 62
    43
100
AcDbVertex
100
AcDbPolyFaceMeshVertex
 10
146.1073550909592
 20
0.0000000000014889
 30
662.8972952920969
 70
   192
  0
VERTEX
  5
664
330
65F
100
AcDbEntity
  8
0
 62
    43
100
AcDbVertex
100
AcDbPolyFaceMeshVertex
 10
165.1843265823319
 20
0.0000000000001354
 30
669.2474841789009
 70
   192
  0
VERTEX
  5
665
330
65F
100
AcDbEntity
  8
0
 62
    43
100
AcDbVertex
100
AcDbPolyFaceMeshVertex
 10
148.793960161739
 20
-0.0000000000000902
 30
675.3232473116942
 70
   192
  0
VERTEX
  5
666
330
65F
100
AcDbEntity
  8
0
 62
    43
100
AcDbVertex
100
AcDbPolyFaceMeshVertex
 10
180.0282231656176
 20
0.0000000000009024
 30
702.5273720995474
 70
   192
  0
VERTEX
  5
667
330
65F
100
AcDbEntity
  8
0
 62
    43
100
AcDbVertex
100
AcDbPolyFaceMeshVertex
 10
159.7094174848868
 20
0.0000000000001805
 30
704.8782091889409
 70
   192
  0
VERTEX
  5
668
330
65F
100
AcDbEntity
  8
0
 62
    43
100
AcDbVertex
100
AcDbPolyFaceMeshVertex
 10
181.4593880642629
 20
0.0000000000009475
 30
723.1807927122667
 70
   192
  0
VERTEX
  5
669
330
65F
100
AcDbEntity
  8
0
 62
    43
100
AcDbVertex
100
AcDbPolyFaceMeshVertex
 10
159.7094174848868
 20
0.0000000000001805
 30
722.1745265125835
 70
   192
  0
VERTEX
  5
66A
330
65F
100
AcDbEntity
  8
0
 62
    43
100
AcDbVertex
100
AcDbPolyFaceMeshVertex
 10
193.7808738094329
 20
0.0000000000007219
 30
682.7683718960108
 70
   192
  0
VERTEX
  5
66B
330
65F
100
AcDbEntity
  8
0
 62
    43
100
AcDbVertex
100
AcDbPolyFaceMeshVertex
 10
184.9226872018432
 20
0.0000000000005866
 30
684.7602647113564
 70
   192
  0
VERTEX
  5
66C
330
65F
100
AcDbEntity
  8
0
 62
    43
100
AcDbVertex
100
AcDbPolyFaceMeshVertex
 10
189.4145063922736
 20
0.000000000000361
 30
680.4173041967404
 70
   192
  0
VERTEX
  5
66D
330
65F
100
AcDbEntity
  8
0
 62
    43
100
AcDbVertex
100
AcDbPolyFaceMeshVertex
 10
199.490313152105
 20
0.0000000000009475
 30
712.3231031633786
 70
   192
  0
VERTEX
  5
66E
330
65F
100
AcDbEntity
  8
0
 62
    43
100
AcDbVertex
100
AcDbPolyFaceMeshVertex
 10
194.4524097721904
 20
0.0000000000001805
 30
711.9873351820021
 70
   192
  0
VERTEX
  5
66F
330
65F
100
AcDbEntity
  8
0
 62
    43
100
AcDbVertex
100
AcDbPolyFaceMeshVertex
 10
194.4524097721901
 20
0.0000000000013536
 30
722.7343319897757
 70
   192
  0
VERTEX
  5
670
330
65F
100
AcDbEntity
  8
0
 62
    43
100
AcDbVertex
100
AcDbPolyFaceMeshVertex
 10
199.9376963141021
 20
0.0000000000009024
 30
728.0585375323859
 70
   192
  0
VERTEX
  5
671
330
65F
100
AcDbEntity
  8
0
 62
    43
100
AcDbVertex
100
AcDbPolyFaceMeshVertex
 10
194.4524097721904
 20
0.0000000000001805
 30
728.5056900845086
 70
   192
  0
VERTEX
  5
672
330
65F
100
AcDbEntity
  8
0
 62
    43
100
AcDbVertex
100
AcDbPolyFaceMeshVertex
 10
195.2719972761855
 20
0.0000000000019853
 30
770.1079425627939
 70
   192
  0
VERTEX
  5
673
330
65F
100
AcDbEntity
  8
0
 62
    43
100
AcDbVertex
100
AcDbPolyFaceMeshVertex
 10
181.8283638679748
 20
-0.0000000000001354
 30
728.5056900845086
 70
   192
  0
VERTEX
  5
674
330
65F
100
AcDbEntity
  8
0
 62
    43
100
AcDbVertex
100
AcDbPolyFaceMeshVertex
 10
141.7414488935484
 20
0.0000000000000451
 30
734.7688237426247
 70
   192
  0
VERTEX
  5
675
330
65F
100
AcDbEntity
  8
0
 62
    43
100
AcDbVertex
100
AcDbPolyFaceMeshVertex
 10
142.0769862650546
 20
0.000000000000361
 30
752.5689083432725
 70
   192
  0
VERTEX
  5
676
330
65F
100
AcDbEntity
  8
0
 62
    43
100
AcDbVertex
100
AcDbPolyFaceMeshVertex
 10
138.0470786588907
 20
0.0000000000012633
 30
764.9953215826253
 70
   192
  0
VERTEX
  5
677
330
65F
100
AcDbEntity
  8
0
 62
    43
100
AcDbVertex
100
AcDbPolyFaceMeshVertex
 10
118.5674623217309
 20
-0.000000000000361
 30
719.3200374511255
 70
   192
  0
VERTEX
  5
678
330
65F
100
AcDbEntity
  8
0
 62
    43
100
AcDbVertex
100
AcDbPolyFaceMeshVertex
 10
104.1262105842402
 20
0.0000000000010829
 30
716.2970878742849
 70
   192
  0
VERTEX
  5
679
330
65F
100
AcDbEntity
  8
0
 62
    43
100
AcDbVertex
100
AcDbPolyFaceMeshVertex
 10
110.8434150907978
 20
0.000000000000361
 30
715.2896686252151
 70
   192
  0
VERTEX
  5
67A
330
65F
100
AcDbEntity
  8
0
 62
    43
100
AcDbVertex
100
AcDbPolyFaceMeshVertex
 10
102.7826774389849
 20
0.0000000000009024
 30
721.67064393064
 70
   192
  0
VERTEX
  5
67B
330
65F
100
AcDbEntity
  8
0
 62
    43
100
AcDbVertex
100
AcDbPolyFaceMeshVertex
 10
125.9566640107978
 20
0.0000000000014438
 30
734.4332863711256
 70
   192
  0
VERTEX
  5
67C
330
65F
100
AcDbEntity
  8
0
 62
    43
100
AcDbVertex
100
AcDbPolyFaceMeshVertex
 10
107.1490448561424
 20
0.0000000000005866
 30
747.8671188595472
 70
   192
  0
VERTEX
  5
67D
330
65F
100
AcDbEntity
  8
0
 62
    43
100
AcDbVertex
100
AcDbPolyFaceMeshVertex
 10
129.3148050443256
 20
0.0000000000009475
 30
748.8747687184933
 70
   192
  0
VERTEX
  5
67E
330
65F
100
AcDbEntity
  8
0
 62
    43
100
AcDbVertex
100
AcDbPolyFaceMeshVertex
 10
115.1618156534792
 20
0.0000000000018499
 30
772.8170320966035
 70
   192
  0
VERTEX
  5
67F
330
65F
100
AcDbEntity
  8
0
 62
    43
100
AcDbVertex
100
AcDbPolyFaceMeshVertex
 10
134.0169404428591
 20
-0.0000000000000451
 30
761.9727179206008
 70
   192
  0
VERTEX
  5
680
330
65F
100
AcDbEntity
  8
0
 62
    43
100
AcDbVertex
100
AcDbPolyFaceMeshVertex
 10
195.2719972761852
 20
0.0000000000009024
 30
773.0883730716871
 70
   192
  0
VERTEX
  5
681
330
65F
100
AcDbEntity
  8
0
 62
    43
100
AcDbVertex
100
AcDbPolyFaceMeshVertex
 10
129.8318323892746
 20
0.000000000000361
 30
813.5144867212255
 70
   192
  0
VERTEX
  5
682
330
65F
100
AcDbEntity
  8
0
 62
    43
100
AcDbVertex
100
AcDbPolyFaceMeshVertex
 10
195.2719972761855
 20
0.000000000000361
 30
820.5470502350167
 70
   192
  0
VERTEX
  5
683
330
65F
100
AcDbEntity
  8
0
 62
    43
100
AcDbVertex
100
AcDbPolyFaceMeshVertex
 10
142.4627965898083
 20
0.0000000000004061
 30
827.6285030428013
 70
   192
  0
VERTEX
  5
684
330
65F
100
AcDbEntity
  8
0
 62
    43
100
AcDbVertex
100
AcDbPolyFaceMeshVertex
 10
200.6456686374735
 20
0.0
 30
832.6379261028709
 70
   192
  0
VERTEX
  5
685
330
65F
100
AcDbEntity
  8
0
 62
    43
100
AcDbVertex
100
AcDbPolyFaceMeshVertex
 10
151.1849233697789
 20
0.0000000000004061
 30
858.59237596553
 70
   192
  0
VERTEX
  5
686
330
65F
100
AcDbEntity
  8
0
 62
    43
100
AcDbVertex
100
AcDbPolyFaceMeshVertex
 10
201.985050804945
 20
-0.0000000000001805
 30
844.8308468414363
 70
   192
  0
VERTEX
  5
687
330
65F
100
AcDbEntity
  8
0
 62
    43
100
AcDbVertex
100
AcDbPolyFaceMeshVertex
 10
201.985050804945
 20
-0.0000000000001805
 30
860.9264938388167
 70
   192
  0
VERTEX
  5
688
330
65F
100
AcDbEntity
  8
0
 62
    43
100
AcDbVertex
100
AcDbPolyFaceMeshVertex
 10
151.7005670554659
 20
0.0000000000000451
 30
864.4942592508253
 70
   192
  0
VERTEX
  5
689
330
65F
100
AcDbEntity
  8
0
 62
    43
100
AcDbVertex
100
AcDbPolyFaceMeshVertex
 10
223.0512630980648
 20
-0.0000000000019401
 30
997.4842658348285
 70
   192
  0
VERTEX
  5
68A
330
65F
100
AcDbEntity
  8
0
 62
    43
100
AcDbVertex
100
AcDbPolyFaceMeshVertex
 10
155.1099034817495
 20
-0.0000000000028876
 30
903.5116056142389
 70
   192
  0
VERTEX
  5
68B
330
65F
100
AcDbEntity
  8
0
 62
    43
100
AcDbVertex
100
AcDbPolyFaceMeshVertex
 10
152.858689859364
 20
-0.0000000000015792
 30
1005.208716633047
 70
   192
  0
VERTEX
  5
68C
330
65F
100
AcDbEntity
  8
0
 62
    43
100
AcDbVertex
100
AcDbPolyFaceMeshVertex
 10
217.6771305170175
 20
-0.0000000000016243
 30
1008.903144520173
 70
   192
  0
VERTEX
  5
68D
330
65F
100
AcDbEntity
  8
0
 62
    43
100
AcDbVertex
100
AcDbPolyFaceMeshVertex
 10
162.5982674180706
 20
-0.0000000000013987
 30
1015.284062173129
 70
   192
  0
VERTEX
  5
68E
330
65F
100
AcDbEntity
  8
0
 62
    43
100
AcDbVertex
100
AcDbPolyFaceMeshVertex
 10
204.2431827236541
 20
-0.0000000000019401
 30
1017.635187524869
 70
   192
  0
VERTEX
  5
68F
330
65F
100
AcDbEntity
  8
0
 62
    43
100
AcDbVertex
100
AcDbPolyFaceMeshVertex
 10
176.031984601551
 20
-0.0000000000017597
 30
1022.001151374746
 70
   192
  0
VERTEX
  5
690
330
65F
100
AcDbEntity
  8
0
 62
    43
100
AcDbVertex
100
AcDbPolyFaceMeshVertex
 10
187.1148646956485
 20
-0.0000000000021657
 30
1022.001151374746
 70
   192
  0
VERTEX
  5
691
330
65F
100
AcDbEntity
  8
0
 62
    43
100
AcDbVertex
100
AcDbPolyFaceMeshVertex
 10
128.3075011001895
 20
0.000000000000361
 30
674.9875946352565
 70
   192
  0
VERTEX
  5
692
330
65F
100
AcDbEntity
  8
0
 62
    43
100
AcDbVertex
100
AcDbPolyFaceMeshVertex
 10
119.9109954669966
 20
0.0000000000005414
 30
677.0026637432727
 70
   192
  0
VERTEX
  5
693
330
65F
100
AcDbEntity
  8
0
 62
    43
100
AcDbVertex
100
AcDbPolyFaceMeshVertex
 10
123.9415949027825
 20
0.0000000000013085
 30
674.3158280626254
 70
   192
  0
VERTEX
  5
694
330
65F
100
AcDbEntity
  8
0
 62
    43
100
AcDbVertex
100
AcDbPolyFaceMeshVertex
 10
152.8245595975192
 20
0.0000000000007219
 30
702.863255385863
 70
   192
  0
VERTEX
  5
695
330
65F
100
AcDbEntity
  8
0
 62
    43
100
AcDbVertex
100
AcDbPolyFaceMeshVertex
 10
120.2467634483735
 20
0.0000000000001805
 30
685.0631707852164
 70
   192
  0
VERTEX
  5
696
330
65F
100
AcDbEntity
  8
0
 62
    43
100
AcDbVertex
100
AcDbPolyFaceMeshVertex
 10
136.3677775322562
 20
0.0000000000000451
 30
713.9462507848915
 70
   192
  0
VERTEX
  5
697
330
65F
100
AcDbEntity
  8
0
 62
    43
100
AcDbFaceRecord
 10
0.0
 20
0.0
 30
0.0
 70
   128
 71
    -1
 72
     2
 73
     3
  0
VERTEX
  5
698
330
65F
100
AcDbEntity
  8
0
 62
    43
100
AcDbFaceRecord
 10
0.0
 20
0.0
 30
0.0
 70
   128
 71
    -2
 72
    -1
 73
     4
  0
VERTEX
  5
699
330
65F
100
AcDbEntity
  8
0
 62
    43
100
AcDbFaceRecord
 10
0.0
 20
0.0
 30
0.0
 70
   128
 71
    -4
 72
     1
 73
    -5
  0
VERTEX
  5
69A
330
65F
100
AcDbEntity
  8
0
 62
    43
100
AcDbFaceRecord
 10
0.0
 20
0.0
 30
0.0
 70
   128
 71
    -4
 72
    -5
 73
     6
  0
VERTEX
  5
69B
330
65F
100
AcDbEntity
  8
0
 62
    43
100
AcDbFaceRecord
 10
0.0
 20
0.0
 30
0.0
 70
   128
 71
    -6
 72
     5
 73
    -7
  0
VERTEX
  5
69C
330
65F
100
AcDbEntity
  8
0
 62
    43
100
AcDbFaceRecord
 10
0.0
 20
0.0
 30
0.0
 70
   128
 71
    -6
 72
    -7
 73
     8
  0
VERTEX
  5
69D
330
65F
100
AcDbEntity
  8
0
 62
    43
100
AcDbFaceRecord
 10
0.0
 20
0.0
 30
0.0
 70
   128
 71
    -8
 72
     7
 73
    -9
  0
VERTEX
  5
69E
330
65F
100
AcDbEntity
  8
0
 62
    43
100
AcDbFaceRecord
 10
0.0
 20
0.0
 30
0.0
 70
   128
 71
    -8
 72
    -9
 73
    10
  0
VERTEX
  5
69F
330
65F
100
AcDbEntity
  8
0
 62
    43
100
AcDbFaceRecord
 10
0.0
 20
0.0
 30
0.0
 70
   128
 71
   -11
 72
    12
 73
    13
  0
VERTEX
  5
6A0
330
65F
100
AcDbEntity
  8
0
 62
    43
100
AcDbFaceRecord
 10
0.0
 20
0.0
 30
0.0
 70
   128
 71
   -12
 72
    11
 73
   -14
  0
VERTEX
  5
6A1
330
65F
100
AcDbEntity
  8
0
 62
    43
100
AcDbFaceRecord
 10
0.0
 20
0.0
 30
0.0
 70
   128
 71
   -12
 72
   -14
 73
    15
  0
VERTEX
  5
6A2
330
65F
100
AcDbEntity
  8
0
 62
    43
100
AcDbFaceRecord
 10
0.0
 20
0.0
 30
0.0
 70
   128
 71
   -15
 72
   -14
 73
    16
  0
VERTEX
  5
6A3
330
65F
100
AcDbEntity
  8
0
 62
    43
100
AcDbFaceRecord
 10
0.0
 20
0.0
 30
0.0
 70
   128
 71
   -16
 72
    14
 73
   -17
  0
VERTEX
  5
6A4
330
65F
100
AcDbEntity
  8
0
 62
    43
100
AcDbFaceRecord
 10
0.0
 20
0.0
 30
0.0
 70
   128
 71
   -16
 72
   -17
 73
    18
  0
VERTEX
  5
6A5
330
65F
100
AcDbEntity
  8
0
 62
    43
100
AcDbFaceRecord
 10
0.0
 20
0.0
 30
0.0
 70
   128
 71
   -18
 72
    17
 73
   -19
  0
VERTEX
  5
6A6
330
65F
100
AcDbEntity
  8
0
 62
    43
100
AcDbFaceRecord
 10
0.0
 20
0.0
 30
0.0
 70
   128
 71
   -18
 72
   -19
 73
    20
  0
VERTEX
  5
6A7
330
65F
100
AcDbEntity
  8
0
 62
    43
100
AcDbFaceRecord
 10
0.0
 20
0.0
 30
0.0
 70
   128
 71
   -20
 72
   -19
 73
   -21
  0
VERTEX
  5
6A8
330
65F
100
AcDbEntity
  8
0
 62
    43
100
AcDbFaceRecord
 10
0.0
 20
0.0
 30
0.0
 70
   128
 71
   -21
 72
   -19
 73
    22
  0
VERTEX
  5
6A9
330
65F
100
AcDbEntity
  8
0
 62
    43
100
AcDbFaceRecord
 10
0.0
 20
0.0
 30
0.0
 70
   128
 71
   -22
 72
   -19
 73
    23
  0
VERTEX
  5
6AA
330
65F
100
AcDbEntity
  8
0
 62
    43
100
AcDbFaceRecord
 10
0.0
 20
0.0
 30
0.0
 70
   128
 71
   -24
 72
    25
 73
    26
  0
VERTEX
  5
6AB
330
65F
100
AcDbEntity
  8
0
 62
    43
100
AcDbFaceRecord
 10
0.0
 20
0.0
 30
0.0
 70
   128
 71
   -25
 72
   -24
 73
    27
  0
VERTEX
  5
6AC
330
65F
100
AcDbEntity
  8
0
 62
    43
100
AcDbFaceRecord
 10
0.0
 20
0.0
 30
0.0
 70
   128
 71
   -27
 72
    24
 73
   -28
  0
VERTEX
  5
6AD
330
65F
100
AcDbEntity
  8
0
 62
    43
100
AcDbFaceRecord
 10
0.0
 20
0.0
 30
0.0
 70
   128
 71
   -27
 72
   -28
 73
    29
  0
VERTEX
  5
6AE
330
65F
100
AcDbEntity
  8
0
 62
    43
100
AcDbFaceRecord
 10
0.0
 20
0.0
 30
0.0
 70
   128
 71
   -29
 72
    28
 73
   -30
  0
VERTEX
  5
6AF
330
65F
100
AcDbEntity
  8
0
 62
    43
100
AcDbFaceRecord
 10
0.0
 20
0.0
 30
0.0
 70
   128
 71
   -29
 72
   -30
 73
    31
  0
VERTEX
  5
6B0
330
65F
100
AcDbEntity
  8
0
 62
    43
100
AcDbFaceRecord
 10
0.0
 20
0.0
 30
0.0
 70
   128
 71
   -31
 72
    30
 73
   -32
  0
VERTEX
  5
6B1
330
65F
100
AcDbEntity
  8
0
 62
    43
100
AcDbFaceRecord
 10
0.0
 20
0.0
 30
0.0
 70
   128
 71
   -31
 72
    32
 73
   -23
  0
VERTEX
  5
6B2
330
65F
100
AcDbEntity
  8
0
 62
    43
100
AcDbFaceRecord
 10
0.0
 20
0.0
 30
0.0
 70
   128
 71
   -31
 72
   -23
 73
   -19
  0
VERTEX
  5
6B3
330
65F
100
AcDbEntity
  8
0
 62
    43
100
AcDbFaceRecord
 10
0.0
 20
0.0
 30
0.0
 70
   128
 71
   -31
 72
    19
 73
   -33
  0
VERTEX
  5
6B4
330
65F
100
AcDbEntity
  8
0
 62
    43
100
AcDbFaceRecord
 10
0.0
 20
0.0
 30
0.0
 70
   128
 71
   -31
 72
   -33
 73
    34
  0
VERTEX
  5
6B5
330
65F
100
AcDbEntity
  8
0
 62
    43
100
AcDbFaceRecord
 10
0.0
 20
0.0
 30
0.0
 70
   128
 71
   -34
 72
    33
 73
   -35
  0
VERTEX
  5
6B6
330
65F
100
AcDbEntity
  8
0
 62
    43
100
AcDbFaceRecord
 10
0.0
 20
0.0
 30
0.0
 70
   128
 71
   -34
 72
   -35
 73
    36
  0
VERTEX
  5
6B7
330
65F
100
AcDbEntity
  8
0
 62
    43
100
AcDbFaceRecord
 10
0.0
 20
0.0
 30
0.0
 70
   128
 71
   -36
 72
    35
 73
   -37
  0
VERTEX
  5
6B8
330
65F
100
AcDbEntity
  8
0
 62
    43
100
AcDbFaceRecord
 10
0.0
 20
0.0
 30
0.0
 70
   128
 71
   -36
 72
   -37
 73
    38
  0
VERTEX
  5
6B9
330
65F
100
AcDbEntity
  8
0
 62
    43
100
AcDbFaceRecord
 10
0.0
 20
0.0
 30
0.0
 70
   128
 71
   -38
 72
    37
 73
   -39
  0
VERTEX
  5
6BA
330
65F
100
AcDbEntity
  8
0
 62
    43
100
AcDbFaceRecord
 10
0.0
 20
0.0
 30
0.0
 70
   128
 71
   -38
 72
    39
 73
   -40
  0
VERTEX
  5
6BB
330
65F
100
AcDbEntity
  8
0
 62
    43
100
AcDbFaceRecord
 10
0.0
 20
0.0
 30
0.0
 70
   128
 71
   -38
 72
   -40
 73
    41
  0
VERTEX
  5
6BC
330
65F
100
AcDbEntity
  8
0
 62
    43
100
AcDbFaceRecord
 10
0.0
 20
0.0
 30
0.0
 70
   128
 71
   -41
 72
    40
 73
   -42
  0
VERTEX
  5
6BD
330
65F
100
AcDbEntity
  8
0
 62
    43
100
AcDbFaceRecord
 10
0.0
 20
0.0
 30
0.0
 70
   128
 71
   -41
 72
   -42
 73
    43
  0
VERTEX
  5
6BE
330
65F
100
AcDbEntity
  8
0
 62
    43
100
AcDbFaceRecord
 10
0.0
 20
0.0
 30
0.0
 70
   128
 71
   -43
 72
   -42
 73
    44
  0
VERTEX
  5
6BF
330
65F
100
AcDbEntity
  8
0
 62
    43
100
AcDbFaceRecord
 10
0.0
 20
0.0
 30
0.0
 70
   128
 71
   -44
 72
    42
 73
   -45
  0
VERTEX
  5
6C0
330
65F
100
AcDbEntity
  8
0
 62
    43
100
AcDbFaceRecord
 10
0.0
 20
0.0
 30
0.0
 70
   128
 71
   -44
 72
   -45
 73
    46
  0
VERTEX
  5
6C1
330
65F
100
AcDbEntity
  8
0
 62
    43
100
AcDbFaceRecord
 10
0.0
 20
0.0
 30
0.0
 70
   128
 71
   -46
 72
    45
 73
   -47
  0
VERTEX
  5
6C2
330
65F
100
AcDbEntity
  8
0
 62
    43
100
AcDbFaceRecord
 10
0.0
 20
0.0
 30
0.0
 70
   128
 71
   -46
 72
   -47
 73
    48
  0
VERTEX
  5
6C3
330
65F
100
AcDbEntity
  8
0
 62
    43
100
AcDbFaceRecord
 10
0.0
 20
0.0
 30
0.0
 70
   128
 71
   -48
 72
    47
 73
    49
  0
VERTEX
  5
6C4
330
65F
100
AcDbEntity
  8
0
 62
    43
100
AcDbFaceRecord
 10
0.0
 20
0.0
 30
0.0
 70
   128
 71
   -50
 72
    51
 73
    52
  0
VERTEX
  5
6C5
330
65F
100
AcDbEntity
  8
0
 62
    43
100
AcDbFaceRecord
 10
0.0
 20
0.0
 30
0.0
 70
   128
 71
   -51
 72
    50
 73
   -53
  0
VERTEX
  5
6C6
330
65F
100
AcDbEntity
  8
0
 62
    43
100
AcDbFaceRecord
 10
0.0
 20
0.0
 30
0.0
 70
   128
 71
   -51
 72
   -53
 73
    54
  0
VERTEX
  5
6C7
330
65F
100
AcDbEntity
  8
0
 62
    43
100
AcDbFaceRecord
 10
0.0
 20
0.0
 30
0.0
 70
   128
 71
   -54
 72
   -53
 73
    55
  0
VERTEX
  5
6C8
330
65F
100
AcDbEntity
  8
0
 62
    43
100
AcDbFaceRecord
 10
0.0
 20
0.0
 30
0.0
 70
   128
 71
   -55
 72
    53
 73
   -10
  0
VERTEX
  5
6C9
330
65F
100
AcDbEntity
  8
0
 62
    43
100
AcDbFaceRecord
 10
0.0
 20
0.0
 30
0.0
 70
   128
 71
   -55
 72
   -10
 73
    21
  0
VERTEX
  5
6CA
330
65F
100
AcDbEntity
  8
0
 62
    43
100
AcDbFaceRecord
 10
0.0
 20
0.0
 30
0.0
 70
   128
 71
   -21
 72
   -10
 73
    -9
  0
VERTEX
  5
6CB
330
65F
100
AcDbEntity
  8
0
 62
    43
100
AcDbFaceRecord
 10
0.0
 20
0.0
 30
0.0
 70
   128
 71
   -21
 72
     9
 73
   -20
  0
SEQEND
  5
6CC
330
65F
100
AcDbEntity
  8
0
 62
    43
  0
POLYLINE
  5
6CD
330
74
100
AcDbEntity
  8
0
 62
   253
100
AcDbPolyFaceMesh
 66
     1
 10
0.0
 20
0.0
 30
0.0
 70
    64
 71
     4
 72
     2
1001
ACAD_MATERIAL_MAPPER
1070
     1
1070
     1
1070
     1
1011
-0.000000000043037
1021
0.0
1031
-0.0000000001877979
1011
25.39999999995698
1021
0.0
1031
-0.0000000001877979
1011
-0.0000000000431593
1021
0.0
1031
25.39999999981216
1011
-0.000000000043037
1021
1.0
1031
-0.0000000001877979
  0
VERTEX
  5
6CE
330
6CD
100
AcDbEntity
  8
0
 62
   253
100
AcDbVertex
100
AcDbPolyFaceMeshVertex
 10
194.4524097721904
 20
0.0000000000001805
 30
728.5056900845086
 70
   192
  0
VERTEX
  5
6CF
330
6CD
100
AcDbEntity
  8
0
 62
   253
100
AcDbVertex
100
AcDbPolyFaceMeshVertex
 10
181.4593880642629
 20
0.0000000000009475
 30
723.1807927122667
 70
   192
  0
VERTEX
  5
6D0
330
6CD
100
AcDbEntity
  8
0
 62
   253
100
AcDbVertex
100
AcDbPolyFaceMeshVertex
 10
194.4524097721901
 20
0.0000000000013536
 30
722.7343319897757
 70
   192
  0
VERTEX
  5
6D1
330
6CD
100
AcDbEntity
  8
0
 62
   253
100
AcDbVertex
100
AcDbPolyFaceMeshVertex
 10
181.8283638679748
 20
-0.0000000000001354
 30
728.5056900845086
 70
   192
  0
VERTEX
  5
6D2
330
6CD
100
AcDbEntity
  8
0
 62
   253
100
AcDbFaceRecord
 10
0.0
 20
0.0
 30
0.0
 70
   128
 71
    -1
 72
     2
 73
     3
  0
VERTEX
  5
6D3
330
6CD
100
AcDbEntity
  8
0
 62
   253
100
AcDbFaceRecord
 10
0.0
 20
0.0
 30
0.0
 70
   128
 71
    -2
 72
     1
 73
     4
  0
SEQEND
  5
6D4
330
6CD
100
AcDbEntity
  8
0
 62
   253
  0
LINE
  5
6D5
330
74
100
AcDbEntity
  8
0
 62
   178
 60
     1
100
AcDbLine
 10
181.4593880642629
 20
0.0000000000009475
 30
723.1807927122667
 11
194.4524097721901
 21
0.0000000000013536
 31
722.7343319897757
  0
ENDBLK
  5
76
330
74
100
AcDbEntity
  8
0
100
AcDbBlockEnd
  0
ENDSEC
  0
SECTION
  2
ENTITIES
  0
INSERT
  5
6D6
330
1F
100
AcDbEntity
  8
0
 62
     0
100
AcDbBlockReference
  2
BARDAGE_BOIS_VICKING_PROTA
 10
0.0
 20
0.0
 30
0.0
  0
ENDSEC
  0
SECTION
  2
OBJECTS
  0
DICTIONARY
  5
C
330
0
100
AcDbDictionary
  3
ACAD_GROUP
350
D
  3
ACAD_LAYOUT
350
1A
  3
ACAD_MATERIAL
350
43
  3
ACAD_MLEADERSTYLE
350
6B
  3
ACAD_MLINESTYLE
350
17
  3
ACAD_PLOTSETTINGS
350
19
  3
ACAD_SCALELIST
350
47
  3
ACAD_VISUALSTYLE
350
2A
  3
ACDBHEADERROUNDTRIPXREC
350
6D7
  3
ACDBVARIABLEDICTIONARY
350
6F8
  0
DICTIONARY
  5
6FF
330
8
100
AcDbDictionary
280
     1
  3
ACAD_XREC_ROUNDTRIP
360
700
  0
DICTIONARY
  5
D
102
{ACAD_REACTORS
330
C
102
}
330
C
100
AcDbDictionary
  0
DICTIONARY
  5
1A
102
{ACAD_REACTORS
330
C
102
}
330
C
100
AcDbDictionary
  0
DICTIONARY
  5
43
102
{ACAD_REACTORS
330
C
102
}
330
C
100
AcDbDictionary
  3
96_96_96
350
37C
  3
BLACK
350
14C
  3
BYBLOCK
350
45
  3
BYLAYER
350
44
  3
GLOBAL
350
46
  3
JEAN_BLUE
350
3A4
  3
_0135_DARKGRAY_
350
354
  3
_BEIGE_1
350
196
  3
_CHARCOAL_
350
4BF
  3
_COLOR_B24_
350
234
  3
_LIGHTGRAY_
350
2B2
  0
DICTIONARY
  5
6B
102
{ACAD_REACTORS
330
C
102
}
330
C
100
AcDbDictionary
  3
STANDARD
350
6C
  0
DICTIONARY
  5
17
102
{ACAD_REACTORS
330
C
102
}
330
C
100
AcDbDictionary
  3
STANDARD
350
18
  0
DICTIONARY
  5
19
102
{ACAD_REACTORS
330
C
102
}
330
C
100
AcDbDictionary
  0
DICTIONARY
  5
47
102
{ACAD_REACTORS
330
C
102
}
330
C
100
AcDbDictionary
  3
A0
350
48
  3
A1
350
49
  3
A2
350
4A
  3
A3
350
4B
  3
A4
350
4C
  3
A5
350
4D
  3
A6
350
4E
  3
A7
350
4F
  3
A8
350
50
  3
A9
350
51
  3
B0
350
52
  3
B1
350
53
  3
B2
350
54
  3
B3
350
55
  3
B4
350
56
  3
B5
350
57
  3
B6
350
58
  3
B7
350
59
  3
B8
350
5A
  3
B9
350
5B
  3
C0
350
5C
  3
C1
350
5D
  3
C2
350
5E
  3
C3
350
5F
  3
C4
350
60
  3
C5
350
61
  3
C6
350
62
  3
C7
350
63
  3
C8
350
64
  3
C9
350
65
  3
D0
350
66
  3
D1
350
67
  3
D2
350
68
  0
DICTIONARY
  5
2A
102
{ACAD_REACTORS
330
C
102
}
330
C
100
AcDbDictionary
  3
2DWIREFRAME
350
2F
  3
BASIC
350
32
  3
BRIGHTEN
350
36
  3
COLORCHANGE
350
3A
  3
CONCEPTUAL
350
34
  3
DIM
350
35
  3
EDGECOLOROFF
350
3D
  3
FACEPATTERN
350
39
  3
FLAT
350
2B
  3
FLATWITHEDGES
350
2C
  3
GOURAUD
350
2D
  3
GOURAUDWITHEDGES
350
2E
  3
HIDDEN
350
31
  3
JITTEROFF
350
3B
  3
LINEPATTERN
350
38
  3
OVERHANGOFF
350
3C
  3
REALISTIC
350
33
  3
SHADED
350
42
  3
SHADED_WITH_EDGES
350
41
  3
SHADES_OF_GRAY
350
3E
  3
SKETCHY
350
3F
  3
THICKEN
350
37
  3
WIREFRAME
350
30
  3
X-RAY
350
40
  0
DICTIONARY
  5
6D7
102
{ACAD_REACTORS
330
C
102
}
330
C
100
AcDbDictionary
  3
CEPSNID
350
6E1
  3
CEPSNTYPE
350
6E0
  3
DIMSTYLEDATA
350
6F7
  3
FINGERPRINTGUID
350
6E2
  3
HYPERLINKBASE
350
6DA
  3
INSUNITS
350
6DF
  3
LAYOUTDICT
350
6DC
  3
LWETCUNION
350
6DE
  3
PLOTSETDICT
350
6DD
  3
PSVPSCALE
350
6E4
  3
PUCSBASE
350
6E7
  3
PUCSORGBACK
350
6ED
  3
PUCSORGBOTTOM
350
6E9
  3
PUCSORGFRONT
350
6EC
  3
PUCSORGLEFT
350
6EA
  3
PUCSORGRIGHT
350
6EB
  3
PUCSORGTOP
350
6E8
  3
PUCSORTHOREF
350
6E5
  3
PUCSORTHOVIEW
350
6E6
  3
STYLESHEET
350
6DB
  3
TSTACKALIGN
350
6D8
  3
TSTACKSIZE
350
6D9
  3
UCSBASE
350
6F0
  3
UCSORGBACK
350
6F6
  3
UCSORGBOTTOM
350
6F2
  3
UCSORGFRONT
350
6F5
  3
UCSORGLEFT
350
6F3
  3
UCSORGRIGHT
350
6F4
  3
UCSORGTOP
350
6F1
  3
UCSORTHOREF
350
6EE
  3
UCSORTHOVIEW
350
6EF
  3
VERSIONGUID
350
6E3
  0
DICTIONARY
  5
6F8
102
{ACAD_REACTORS
330
C
102
}
330
C
100
AcDbDictionary
  3
CANNOSCALE
350
701
  3
CMLEADERSTYLE
350
6FA
  3
CTABLESTYLE
350
6F9
  3
DIMASSOC
350
6FD
  3
HIDETEXT
350
6FE
  3
MSLTSCALE
350
702
  0
XRECORD
  5
700
102
{ACAD_REACTORS
330
6FF
102
}
330
6FF
100
AcDbXrecord
102
VTR_0.000_0.000_1.000_1.000_VISUALSTYLE
340
2F
102
VTR_0.000_0.000_1.000_1.000_GRIDDISPLAY
 70
     3
102
VTR_0.000_0.000_1.000_1.000_GRIDMAJOR
 70
     5
102
VTR_0.000_0.000_1.000_1.000_DEFAULTLIGHTING
280
     1
102
VTR_0.000_0.000_1.000_1.000_DEFAULTLIGHTINGTYPE
 70
     1
102
VTR_0.000_0.000_1.000_1.000_BRIGHTNESS
141
0.0
102
VTR_0.000_0.000_1.000_1.000_CONTRAST
142
0.0
  0
MATERIAL
  5
37C
102
{ACAD_REACTORS
330
43
102
}
102
{ACAD_XDICTIONARY
360
713
102
}
330
43
100
AcDbMaterial
  1
96_96_96
  0
MATERIAL
  5
14C
102
{ACAD_REACTORS
330
43
102
}
102
{ACAD_XDICTIONARY
360
709
102
}
330
43
100
AcDbMaterial
  1
BLACK
  0
MATERIAL
  5
45
102
{ACAD_REACTORS
330
43
102
}
102
{ACAD_XDICTIONARY
360
705
102
}
330
43
100
AcDbMaterial
  1
BYBLOCK
  0
MATERIAL
  5
44
102
{ACAD_REACTORS
330
43
102
}
102
{ACAD_XDICTIONARY
360
703
102
}
330
43
100
AcDbMaterial
  1
BYLAYER
  0
MATERIAL
  5
46
102
{ACAD_REACTORS
330
43
102
}
102
{ACAD_XDICTIONARY
360
707
102
}
330
43
100
AcDbMaterial
  1
GLOBAL
  0
MATERIAL
  5
3A4
102
{ACAD_REACTORS
330
43
102
}
102
{ACAD_XDICTIONARY
360
715
102
}
330
43
100
AcDbMaterial
  1
JEAN_BLUE
  0
MATERIAL
  5
354
102
{ACAD_REACTORS
330
43
102
}
102
{ACAD_XDICTIONARY
360
711
102
}
330
43
100
AcDbMaterial
  1
_0135_DARKGRAY_
  0
MATERIAL
  5
196
102
{ACAD_REACTORS
330
43
102
}
102
{ACAD_XDICTIONARY
360
70B
102
}
330
43
100
AcDbMaterial
  1
_BEIGE_1
  0
MATERIAL
  5
4BF
102
{ACAD_REACTORS
330
43
102
}
102
{ACAD_XDICTIONARY
360
717
102
}
330
43
100
AcDbMaterial
  1
_CHARCOAL_
  0
MATERIAL
  5
234
102
{ACAD_REACTORS
330
43
102
}
102
{ACAD_XDICTIONARY
360
70D
102
}
330
43
100
AcDbMaterial
  1
_COLOR_B24_
  0
MATERIAL
  5
2B2
102
{ACAD_REACTORS
330
43
102
}
102
{ACAD_XDICTIONARY
360
70F
102
}
330
43
100
AcDbMaterial
  1
_LIGHTGRAY_
  0
ACAD_PROXY_OBJECT
  5
6C
102
{ACAD_REACTORS
330
6B
102
}
330
6B
100
AcDbProxyObject
 90
      499
 91
      505
 93
      610
310
40901902A4063FBFFFFFE056BD1B81E855B9FC0AD7A3703D0AD73F4214DD185B99185C9900AD7A3703D0AC73F90141901A02B5E8DC0F42B1CFC02B5E8DC0F42B1CFE5764000000000000300FC0
340
14
340
0
340
11
340
0
 94
        0
1001
ACAD_MLEADERVER
1070
     2
  0
MLINESTYLE
  5
18
102
{ACAD_REACTORS
330
17
102
}
330
17
100
AcDbMlineStyle
  2
Standard
 70
     0
  3

 62
   256
 51
90.0
 52
90.0
 71
     2
 49
0.5
 62
   256
  6
BYLAYER
 49
-0.5
 62
   256
  6
BYLAYER
  0
ACAD_PROXY_OBJECT
  5
48
102
{ACAD_REACTORS
330
47
102
}
330
47
100
AcDbProxyObject
 90
      499
 91
      503
 93
       41
310
903313A31580
  0
ACAD_PROXY_OBJECT
  5
49
102
{ACAD_REACTORS
330
47
102
}
330
47
100
AcDbProxyObject
 90
      499
 91
      503
 93
      105
310
903313A324000000000000004000
  0
ACAD_PROXY_OBJECT
  5
4A
102
{ACAD_REACTORS
330
47
102
}
330
47
100
AcDbProxyObject
 90
      499
 91
      503
 93
      105
310
903313A344000000000000104000
  0
ACAD_PROXY_OBJECT
  5
4B
102
{ACAD_REACTORS
330
47
102
}
330
47
100
AcDbProxyObject
 90
      499
 91
      503
 93
      105
310
903313A354000000000000144000
  0
ACAD_PROXY_OBJECT
  5
4C
102
{ACAD_REACTORS
330
47
102
}
330
47
100
AcDbProxyObject
 90
      499
 91
      503
 93
      105
310
903313A384000000000000204000
  0
ACAD_PROXY_OBJECT
  5
4D
102
{ACAD_REACTORS
330
47
102
}
330
47
100
AcDbProxyObject
 90
      499
 91
      503
 93
      113
310
904313A31304000000000000244000
  0
ACAD_PROXY_OBJECT
  5
4E
102
{ACAD_REACTORS
330
47
102
}
330
47
100
AcDbProxyObject
 90
      499
 91
      503
 93
      113
310
904313A31364000000000000304000
  0
ACAD_PROXY_OBJECT
  5
4F
102
{ACAD_REACTORS
330
47
102
}
330
47
100
AcDbProxyObject
 90
      499
 91
      503
 93
      113
310
904313A32304000000000000344000
  0
ACAD_PROXY_OBJECT
  5
50
102
{ACAD_REACTORS
330
47
102
}
330
47
100
AcDbProxyObject
 90
      499
 91
      503
 93
      113
310
904313A333040000000000003E4000
  0
ACAD_PROXY_OBJECT
  5
51
102
{ACAD_REACTORS
330
47
102
}
330
47
100
AcDbProxyObject
 90
      499
 91
      503
 93
      113
310
904313A34304000000000000444000
  0
ACAD_PROXY_OBJECT
  5
52
102
{ACAD_REACTORS
330
47
102
}
330
47
100
AcDbProxyObject
 90
      499
 91
      503
 93
      113
310
904313A35304000000000000494000
  0
ACAD_PROXY_OBJECT
  5
53
102
{ACAD_REACTORS
330
47
102
}
330
47
100
AcDbProxyObject
 90
      499
 91
      503
 93
      121
310
905313A3130304000000000000594000
  0
ACAD_PROXY_OBJECT
  5
54
102
{ACAD_REACTORS
330
47
102
}
330
47
100
AcDbProxyObject
 90
      499
 91
      503
 93
      105
310
903323A310000000000000010100
  0
ACAD_PROXY_OBJECT
  5
55
102
{ACAD_REACTORS
330
47
102
}
330
47
100
AcDbProxyObject
 90
      499
 91
      503
 93
      105
310
903343A310000000000000410100
  0
ACAD_PROXY_OBJECT
  5
56
102
{ACAD_REACTORS
330
47
102
}
330
47
100
AcDbProxyObject
 90
      499
 91
      503
 93
      105
310
903383A310000000000000810100
  0
ACAD_PROXY_OBJECT
  5
57
102
{ACAD_REACTORS
330
47
102
}
330
47
100
AcDbProxyObject
 90
      499
 91
      503
 93
      113
310
90431303A310000000000000910100
  0
ACAD_PROXY_OBJECT
  5
58
102
{ACAD_REACTORS
330
47
102
}
330
47
100
AcDbProxyObject
 90
      499
 91
      503
 93
      121
310
9053130303A310000000000001650100
  0
ACAD_PROXY_OBJECT
  5
59
102
{ACAD_REACTORS
330
47
102
}
330
47
100
AcDbProxyObject
 90
      499
 91
      503
 93
      257
310
90E312F31323822203D2031272D3022000000000000200FC000000000000284000
  0
ACAD_PROXY_OBJECT
  5
5A
102
{ACAD_REACTORS
330
47
102
}
330
47
100
AcDbProxyObject
 90
      499
 91
      503
 93
      249
310
90D312F363422203D2031272D3022000000000000240FC000000000000284000
  0
ACAD_PROXY_OBJECT
  5
5B
102
{ACAD_REACTORS
330
47
102
}
330
47
100
AcDbProxyObject
 90
      499
 91
      503
 93
      249
310
90D312F333222203D2031272D3022000000000000280FC000000000000284000
  0
ACAD_PROXY_OBJECT
  5
5C
102
{ACAD_REACTORS
330
47
102
}
330
47
100
AcDbProxyObject
 90
      499
 91
      503
 93
      249
310
90D312F313622203D2031272D30220000000000002C0FC000000000000284000
  0
ACAD_PROXY_OBJECT
  5
5D
102
{ACAD_REACTORS
330
47
102
}
330
47
100
AcDbProxyObject
 90
      499
 91
      503
 93
      249
310
90D332F333222203D2031272D30220000000000002E0FC000000000000284000
  0
ACAD_PROXY_OBJECT
  5
5E
102
{ACAD_REACTORS
330
47
102
}
330
47
100
AcDbProxyObject
 90
      499
 91
      503
 93
      241
310
90C312F3822203D2031272D3022000000000000300FC000000000000284000
  0
ACAD_PROXY_OBJECT
  5
5F
102
{ACAD_REACTORS
330
47
102
}
330
47
100
AcDbProxyObject
 90
      499
 91
      503
 93
      249
310
90D332F313622203D2031272D3022000000000000320FC000000000000284000
  0
ACAD_PROXY_OBJECT
  5
60
102
{ACAD_REACTORS
330
47
102
}
330
47
100
AcDbProxyObject
 90
      499
 91
      503
 93
      241
310
90C312F3422203D2031272D3022000000000000340FC000000000000284000
  0
ACAD_PROXY_OBJECT
  5
61
102
{ACAD_REACTORS
330
47
102
}
330
47
100
AcDbProxyObject
 90
      499
 91
      503
 93
      241
310
90C332F3822203D2031272D3022000000000000360FC000000000000284000
  0
ACAD_PROXY_OBJECT
  5
62
102
{ACAD_REACTORS
330
47
102
}
330
47
100
AcDbProxyObject
 90
      499
 91
      503
 93
      241
310
90C312F3222203D2031272D3022000000000000380FC000000000000284000
  0
ACAD_PROXY_OBJECT
  5
63
102
{ACAD_REACTORS
330
47
102
}
330
47
100
AcDbProxyObject
 90
      499
 91
      503
 93
      241
310
90C332F3422203D2031272D30220000000000003A0FC000000000000284000
  0
ACAD_PROXY_OBJECT
  5
64
102
{ACAD_REACTORS
330
47
102
}
330
47
100
AcDbProxyObject
 90
      499
 91
      503
 93
      161
310
90A3122203D2031272D30224000000000000284000
  0
ACAD_PROXY_OBJECT
  5
65
102
{ACAD_REACTORS
330
47
102
}
330
47
100
AcDbProxyObject
 90
      499
 91
      503
 93
      257
310
90E312D312F3222203D2031272D30220000000000003E0FC000000000000284000
  0
ACAD_PROXY_OBJECT
  5
66
102
{ACAD_REACTORS
330
47
102
}
330
47
100
AcDbProxyObject
 90
      499
 91
      503
 93
      225
310
90A3322203D2031272D302200000000000002100000000000000284000
  0
ACAD_PROXY_OBJECT
  5
67
102
{ACAD_REACTORS
330
47
102
}
330
47
100
AcDbProxyObject
 90
      499
 91
      503
 93
      225
310
90A3622203D2031272D302200000000000006100000000000000284000
  0
ACAD_PROXY_OBJECT
  5
68
102
{ACAD_REACTORS
330
47
102
}
330
47
100
AcDbProxyObject
 90
      499
 91
      503
 93
      249
310
90D31272D3022203D2031272D30220000000000000A100000000000000284000
  0
ACAD_PROXY_OBJECT
  5
2F
102
{ACAD_REACTORS
330
2A
102
}
330
2A
100
AcDbProxyObject
 90
      499
 91
      501
 93
      436
310
42CC9915DA5C99599C985B595049028333333333333E33F0000000000000F90107901411070040501600405405064090741402480A0340
1001
ACAD
1000
AcDbSavedByObjectVersion
1070
     0
  0
ACAD_PROXY_OBJECT
  5
32
102
{ACAD_REACTORS
330
2A
102
}
330
2A
100
AcDbProxyObject
 90
      499
 91
      501
 93
      388
310
4150985CDA58D07406404333333333333E33F0000000000000F90107A41107004050150841D405064090741402480A0350
1001
ACAD
1000
AcDbSavedByObjectVersion
1070
     0
  0
ACAD_PROXY_OBJECT
  5
36
102
{ACAD_REACTORS
330
2A
102
}
330
2A
100
AcDbProxyObject
 90
      499
 91
      501
 93
      428
310
42109C9A59DA1D195B90C409028333333333333E33F0000000000000F9010790141107004050150841D405064090741402480A029950
1001
ACAD
1000
AcDbSavedByObjectVersion
1070
     0
  0
ACAD_PROXY_OBJECT
  5
3A
102
{ACAD_REACTORS
330
2A
102
}
330
2A
100
AcDbProxyObject
 90
      499
 91
      501
 93
      452
310
42D0DBDB1BDC90DA185B99D95104090240C333333333333E33F0000000000000F90108901411070040501508421405064090741402480A0350
1001
ACAD
1000
AcDbSavedByObjectVersion
1070
     0
  0
ACAD_PROXY_OBJECT
  5
34
102
{ACAD_REACTORS
330
2A
102
}
330
2A
100
AcDbProxyObject
 90
      499
 91
      501
 93
      500
310
4290DBDB98D95C1D1D585B10940D028333333333333E33F0000000000000F90107902409070040501000000000018199010841D405064090740C02480A0340
1001
ACAD
1000
AcDbSavedByObjectVersion
1070
     0
  0
ACAD_PROXY_OBJECT
  5
35
102
{ACAD_REACTORS
330
2A
102
}
330
2A
100
AcDbProxyObject
 90
      499
 91
      501
 93
      412
310
40D11A5B50B409028333333333333E33F0000000000000F9010790141107004050150841D405064090741402480A02677FFFFFD0
1001
ACAD
1000
AcDbSavedByObjectVersion
1070
     0
  0
ACAD_PROXY_OBJECT
  5
3D
102
{ACAD_REACTORS
330
2A
102
}
330
2A
100
AcDbProxyObject
 90
      499
 91
      501
 93
      452
310
43115919D950DBDB1BDC93D999916409028333333333333E33F0000000000000F9010790141107004050150841D405064090741402480A0350
1001
ACAD
1000
AcDbSavedByObjectVersion
1070
     0
  0
ACAD_PROXY_OBJECT
  5
39
102
{ACAD_REACTORS
330
2A
102
}
330
2A
100
AcDbProxyObject
 90
      499
 91
      501
 93
      444
310
42D19858D95C185D1D195C9B90F409028333333333333E33F0000000000000F9010790141107004050150841D405064090741402480A0350
1001
ACAD
1000
AcDbSavedByObjectVersion
1070
     0
  0
ACAD_PROXY_OBJECT
  5
2B
102
{ACAD_REACTORS
330
2A
102
}
330
2A
100
AcDbProxyObject
 90
      499
 91
      501
 93
      380
310
41119B185D240901404333333333333E33F0000000000000F9010740A907004050150841D405064090741402480A1B50
1001
ACAD
1000
AcDbSavedByObjectVersion
1070
     0
  0
ACAD_PROXY_OBJECT
  5
2C
102
{ACAD_REACTORS
330
2A
102
}
330
2A
100
AcDbProxyObject
 90
      499
 91
      501
 93
      468
310
43519B185D15DA5D1A115919D95CD0140901404333333333333E33F0000000000000F90107409019070040501600405405064090741402480A1B50
1001
ACAD
1000
AcDbSavedByObjectVersion
1070
     0
  0
ACAD_PROXY_OBJECT
  5
2D
102
{ACAD_REACTORS
330
2A
102
}
330
2A
100
AcDbProxyObject
 90
      499
 91
      501
 93
      404
310
41D1DBDD5C985D5910240902404333333333333E33F0000000000000F9010740A9070040501641D405064090741402480A1B50
1001
ACAD
1000
AcDbSavedByObjectVersion
1070
     0
  0
ACAD_PROXY_OBJECT
  5
2E
102
{ACAD_REACTORS
330
2A
102
}
330
2A
100
AcDbProxyObject
 90
      499
 91
      501
 93
      492
310
4411DBDD5C985D5915DA5D1A115919D95CD0340902404333333333333E33F0000000000000F90107409019070040501600405405064090741402480A1B50
1001
ACAD
1000
AcDbSavedByObjectVersion
1070
     0
  0
ACAD_PROXY_OBJECT
  5
31
102
{ACAD_REACTORS
330
2A
102
}
330
2A
100
AcDbProxyObject
 90
      499
 91
      501
 93
      476
310
41921A5919195B90640502408333333333333E33F0000000000000F901079024090700405020000000000001110200405405064090740C02480A0340
1001
ACAD
1000
AcDbSavedByObjectVersion
1070
     0
  0
ACAD_PROXY_OBJECT
  5
3B
102
{ACAD_REACTORS
330
2A
102
}
330
2A
100
AcDbProxyObject
 90
      499
 91
      501
 93
      428
310
42529A5D1D195C93D999914409028333333333333E33F0000000000000F9010790141107004050150A41D405064090741402480A0350
1001
ACAD
1000
AcDbSavedByObjectVersion
1070
     0
  0
ACAD_PROXY_OBJECT
  5
38
102
{ACAD_REACTORS
330
2A
102
}
330
2A
100
AcDbProxyObject
 90
      499
 91
      501
 93
      444
310
42D31A5B995C185D1D195C9B90E409028333333333333E33F0000000000000F9010790141107004050750841D405064090741402483A0350
1001
ACAD
1000
AcDbSavedByObjectVersion
1070
     0
  0
ACAD_PROXY_OBJECT
  5
3C
102
{ACAD_REACTORS
330
2A
102
}
330
2A
100
AcDbProxyObject
 90
      499
 91
      501
 93
      444
310
42D3DD995C9A185B99D3D999915409028333333333333E33F0000000000000F9010790141107004050150941D405064090741402480A0350
1001
ACAD
1000
AcDbSavedByObjectVersion
1070
     0
  0
ACAD_PROXY_OBJECT
  5
33
102
{ACAD_REACTORS
330
2A
102
}
330
2A
100
AcDbProxyObject
 90
      499
 91
      501
 93
      428
310
425499585B1A5CDD1A58D08409038333333333333E33F0000000000000F9010740A907004050150800405405064090740C02480A1B40
1001
ACAD
1000
AcDbSavedByObjectVersion
1070
     0
  0
ACAD_PROXY_OBJECT
  5
42
102
{ACAD_REACTORS
330
2A
102
}
330
2A
100
AcDbProxyObject
 90
      499
 91
      501
 93
      420
310
4194DA1859195911B40902404333333333333E33F0000000000000F9010740A41107004050150800405405064090840C02480A0B40
1001
ACAD
1000
AcDbSavedByObjectVersion
1070
     0
  0
ACAD_PROXY_OBJECT
  5
41
102
{ACAD_REACTORS
330
2A
102
}
330
2A
100
AcDbProxyObject
 90
      499
 91
      501
 93
      516
310
4454DA18591959081DDA5D1A08195919D95CD1A40902404333333333333E33F0000000000000F901074090142907004050250800405405064090740C02480A0B40
1001
ACAD
1000
AcDbSavedByObjectVersion
1070
     0
  0
ACAD_PROXY_OBJECT
  5
3E
102
{ACAD_REACTORS
330
2A
102
}
330
2A
100
AcDbProxyObject
 90
      499
 91
      501
 93
      532
310
4394DA1859195CC81BD98811DC985E5174090240C333333333333E33F0000000000000F901079024090741D01000000000000111010841D405064090740C02480A0340
1001
ACAD
1000
AcDbSavedByObjectVersion
1070
     0
  0
ACAD_PROXY_OBJECT
  5
3F
102
{ACAD_REACTORS
330
2A
102
}
330
2A
100
AcDbProxyObject
 90
      499
 91
      501
 93
      476
310
41D4DAD95D18DA1E51840502408333333333333E33F0000000000000F901079024090741D01000000000000111010B41D405064090741802480A0340
1001
ACAD
1000
AcDbSavedByObjectVersion
1070
     0
  0
ACAD_PROXY_OBJECT
  5
37
102
{ACAD_REACTORS
330
2A
102
}
330
2A
100
AcDbProxyObject
 90
      499
 91
      501
 93
      412
310
41D51A1A58DAD95B90D409028333333333333E33F0000000000000F9010790141107004050150C41D405064090741402480A0350
1001
ACAD
1000
AcDbSavedByObjectVersion
1070
     0
  0
ACAD_PROXY_OBJECT
  5
30
102
{ACAD_REACTORS
330
2A
102
}
330
2A
100
AcDbProxyObject
 90
      499
 91
      501
 93
      420
310
4255DA5C99599C985B595059028333333333333E33F0000000000000F90107901411070040501600405405064090740C02480A0340
1001
ACAD
1000
AcDbSavedByObjectVersion
1070
     0
  0
ACAD_PROXY_OBJECT
  5
40
102
{ACAD_REACTORS
330
2A
102
}
330
2A
100
AcDbProxyObject
 90
      499
 91
      501
 93
      404
310
41560B54985E51940902404000000000000E03F0000000000000F9010740501907004050150841D405064090740C02480A1B40
1001
ACAD
1000
AcDbSavedByObjectVersion
1070
     0
  0
XRECORD
  5
6E1
102
{ACAD_REACTORS
330
6D7
102
}
330
6D7
100
AcDbXrecord
340
0
  0
XRECORD
  5
6E0
102
{ACAD_REACTORS
330
6D7
102
}
330
6D7
100
AcDbXrecord
 90
        0
  0
XRECORD
  5
6F7
102
{ACAD_REACTORS
330
6D7
102
}
330
6D7
100
AcDbXrecord
1000
DSTYLE
1002
{
1070
   171
 70
     2
1070
   143
 40
25.4
1070
   274
 70
     2
1070
    41
 40
0.18
1070
   141
 40
0.09
1070
   271
 70
     4
1070
    43
 40
0.38
1070
   278
 70
    46
1070
    44
 40
0.18
1070
    42
 40
0.0625
1070
   147
 40
0.09
1070
    77
 70
     0
1070
   272
 70
     4
1070
    73
 70
     1
1070
   172
 70
     0
1070
    74
 70
     1
1070
   283
 70
     1
1070
   340
340
11
1070
   140
 40
0.18
1070
   284
 70
     0
1070
    78
 70
     0
1002
}
  0
XRECORD
  5
6E2
102
{ACAD_REACTORS
330
6D7
102
}
330
6D7
100
AcDbXrecord
  1
{7d4e4e15-e9f5-fb41-86c2-e11da9bb25fa}
  0
XRECORD
  5
6DA
102
{ACAD_REACTORS
330
6D7
102
}
330
6D7
100
AcDbXrecord
  1

  0
XRECORD
  5
6DF
102
{ACAD_REACTORS
330
6D7
102
}
330
6D7
100
AcDbXrecord
 90
        4
  0
XRECORD
  5
6DC
102
{ACAD_REACTORS
330
6D7
102
}
330
6D7
100
AcDbXrecord
340
1A
  0
XRECORD
  5
6DE
102
{ACAD_REACTORS
330
6D7
102
}
330
6D7
100
AcDbXrecord
 90
    10781
  0
XRECORD
  5
6DD
102
{ACAD_REACTORS
330
6D7
102
}
330
6D7
100
AcDbXrecord
340
19
  0
XRECORD
  5
6E4
102
{ACAD_REACTORS
330
6D7
102
}
330
6D7
100
AcDbXrecord
 40
0.0
  0
XRECORD
  5
6E7
102
{ACAD_REACTORS
330
6D7
102
}
330
6D7
100
AcDbXrecord
340
0
  0
XRECORD
  5
6ED
102
{ACAD_REACTORS
330
6D7
102
}
330
6D7
100
AcDbXrecord
 10
0.0
 20
0.0
 30
0.0
  0
XRECORD
  5
6E9
102
{ACAD_REACTORS
330
6D7
102
}
330
6D7
100
AcDbXrecord
 10
0.0
 20
0.0
 30
0.0
  0
XRECORD
  5
6EC
102
{ACAD_REACTORS
330
6D7
102
}
330
6D7
100
AcDbXrecord
 10
0.0
 20
0.0
 30
0.0
  0
XRECORD
  5
6EA
102
{ACAD_REACTORS
330
6D7
102
}
330
6D7
100
AcDbXrecord
 10
0.0
 20
0.0
 30
0.0
  0
XRECORD
  5
6EB
102
{ACAD_REACTORS
330
6D7
102
}
330
6D7
100
AcDbXrecord
 10
0.0
 20
0.0
 30
0.0
  0
XRECORD
  5
6E8
102
{ACAD_REACTORS
330
6D7
102
}
330
6D7
100
AcDbXrecord
 10
0.0
 20
0.0
 30
0.0
  0
XRECORD
  5
6E5
102
{ACAD_REACTORS
330
6D7
102
}
330
6D7
100
AcDbXrecord
340
0
  0
XRECORD
  5
6E6
102
{ACAD_REACTORS
330
6D7
102
}
330
6D7
100
AcDbXrecord
 70
     0
  0
XRECORD
  5
6DB
102
{ACAD_REACTORS
330
6D7
102
}
330
6D7
100
AcDbXrecord
  1

  0
XRECORD
  5
6D8
102
{ACAD_REACTORS
330
6D7
102
}
330
6D7
100
AcDbXrecord
 90
        1
  0
XRECORD
  5
6D9
102
{ACAD_REACTORS
330
6D7
102
}
330
6D7
100
AcDbXrecord
 90
       70
  0
XRECORD
  5
6F0
102
{ACAD_REACTORS
330
6D7
102
}
330
6D7
100
AcDbXrecord
340
0
  0
XRECORD
  5
6F6
102
{ACAD_REACTORS
330
6D7
102
}
330
6D7
100
AcDbXrecord
 10
0.0
 20
0.0
 30
0.0
  0
XRECORD
  5
6F2
102
{ACAD_REACTORS
330
6D7
102
}
330
6D7
100
AcDbXrecord
 10
0.0
 20
0.0
 30
0.0
  0
XRECORD
  5
6F5
102
{ACAD_REACTORS
330
6D7
102
}
330
6D7
100
AcDbXrecord
 10
0.0
 20
0.0
 30
0.0
  0
XRECORD
  5
6F3
102
{ACAD_REACTORS
330
6D7
102
}
330
6D7
100
AcDbXrecord
 10
0.0
 20
0.0
 30
0.0
  0
XRECORD
  5
6F4
102
{ACAD_REACTORS
330
6D7
102
}
330
6D7
100
AcDbXrecord
 10
0.0
 20
0.0
 30
0.0
  0
XRECORD
  5
6F1
102
{ACAD_REACTORS
330
6D7
102
}
330
6D7
100
AcDbXrecord
 10
0.0
 20
0.0
 30
0.0
  0
XRECORD
  5
6EE
102
{ACAD_REACTORS
330
6D7
102
}
330
6D7
100
AcDbXrecord
340
0
  0
XRECORD
  5
6EF
102
{ACAD_REACTORS
330
6D7
102
}
330
6D7
100
AcDbXrecord
 70
     0
  0
XRECORD
  5
6E3
102
{ACAD_REACTORS
330
6D7
102
}
330
6D7
100
AcDbXrecord
  1
{FAEB1C32-E019-11D5-929B-00C0DF256EC4}
  0
DICTIONARYVAR
  5
701
102
{ACAD_REACTORS
330
6F8
102
}
330
6F8
100
DictionaryVariables
280
     0
  1
1:1
  0
DICTIONARYVAR
  5
6FA
102
{ACAD_REACTORS
330
6F8
102
}
330
6F8
100
DictionaryVariables
280
     0
  1
Standard
  0
DICTIONARYVAR
  5
6F9
102
{ACAD_REACTORS
330
6F8
102
}
330
6F8
100
DictionaryVariables
280
     0
  1
Standard
  0
DICTIONARYVAR
  5
6FD
102
{ACAD_REACTORS
330
6F8
102
}
330
6F8
100
DictionaryVariables
280
     0
  1
2
  0
DICTIONARYVAR
  5
6FE
102
{ACAD_REACTORS
330
6F8
102
}
330
6F8
100
DictionaryVariables
280
     0
  1
1
  0
DICTIONARYVAR
  5
702
102
{ACAD_REACTORS
330
6F8
102
}
330
6F8
100
DictionaryVariables
280
     0
  1
1
  0
DICTIONARY
  5
713
330
37C
100
AcDbDictionary
280
     1
  3
ACAD_XREC_ROUNDTRIP
360
714
  0
DICTIONARY
  5
709
330
14C
100
AcDbDictionary
280
     1
  3
ACAD_XREC_ROUNDTRIP
360
70A
  0
DICTIONARY
  5
705
330
45
100
AcDbDictionary
280
     1
  3
ACAD_XREC_ROUNDTRIP
360
706
  0
DICTIONARY
  5
703
330
44
100
AcDbDictionary
280
     1
  3
ACAD_XREC_ROUNDTRIP
360
704
  0
DICTIONARY
  5
707
330
46
100
AcDbDictionary
280
     1
  3
ACAD_XREC_ROUNDTRIP
360
708
  0
DICTIONARY
  5
715
330
3A4
100
AcDbDictionary
280
     1
  3
ACAD_XREC_ROUNDTRIP
360
716
  0
DICTIONARY
  5
711
330
354
100
AcDbDictionary
280
     1
  3
ACAD_XREC_ROUNDTRIP
360
712
  0
DICTIONARY
  5
70B
330
196
100
AcDbDictionary
280
     1
  3
ACAD_XREC_ROUNDTRIP
360
70C
  0
DICTIONARY
  5
717
330
4BF
100
AcDbDictionary
280
     1
  3
ACAD_XREC_ROUNDTRIP
360
718
  0
DICTIONARY
  5
70D
330
234
100
AcDbDictionary
280
     1
  3
ACAD_XREC_ROUNDTRIP
360
70E
  0
DICTIONARY
  5
70F
330
2B2
100
AcDbDictionary
280
     1
  3
ACAD_XREC_ROUNDTRIP
360
710
  0
XRECORD
  5
714
102
{ACAD_REACTORS
330
713
102
}
330
713
100
AcDbXrecord
102
MATERIAL
148
0.0
149
0.0
149
0.0
 93
        0
 94
        0
282
     0
 72
     1
 77
     1
171
     1
175
     1
179
     1
273
     0
  0
XRECORD
  5
70A
102
{ACAD_REACTORS
330
709
102
}
330
709
100
AcDbXrecord
102
MATERIAL
148
0.0
149
0.0
149
0.0
 93
        0
 94
        0
282
     0
 72
     1
 77
     1
171
     1
175
     1
179
     1
273
     0
  0
XRECORD
  5
706
102
{ACAD_REACTORS
330
705
102
}
330
705
100
AcDbXrecord
102
MATERIAL
148
0.0
149
0.0
149
0.0
 93
        0
 94
      127
282
     0
 72
     1
 77
     1
171
     1
175
     1
179
     1
273
     0
  0
XRECORD
  5
704
102
{ACAD_REACTORS
330
703
102
}
330
703
100
AcDbXrecord
102
MATERIAL
148
0.0
149
0.0
149
0.0
 93
        0
 94
      127
282
     0
 72
     1
 77
     1
171
     1
175
     1
179
     1
273
     0
  0
XRECORD
  5
708
102
{ACAD_REACTORS
330
707
102
}
330
707
100
AcDbXrecord
102
MATERIAL
148
0.0
149
0.0
149
0.0
 93
        0
 94
      127
282
     0
 72
     1
 77
     1
171
     1
175
     1
179
     1
273
     0
  0
XRECORD
  5
716
102
{ACAD_REACTORS
330
715
102
}
330
715
100
AcDbXrecord
102
MATERIAL
148
0.0
149
0.0
149
0.0
 93
        0
 94
        0
282
     0
 72
     1
 77
     1
171
     1
175
     1
179
     1
273
     0
  0
XRECORD
  5
712
102
{ACAD_REACTORS
330
711
102
}
330
711
100
AcDbXrecord
102
MATERIAL
148
0.0
149
0.0
149
0.0
 93
        0
 94
        0
282
     0
 72
     1
 77
     1
171
     1
175
     1
179
     1
273
     0
  0
XRECORD
  5
70C
102
{ACAD_REACTORS
330
70B
102
}
330
70B
100
AcDbXrecord
102
MATERIAL
148
0.0
149
0.0
149
0.0
 93
        0
 94
        0
282
     0
 72
     1
 77
     1
171
     1
175
     1
179
     1
273
     0
  0
XRECORD
  5
718
102
{ACAD_REACTORS
330
717
102
}
330
717
100
AcDbXrecord
102
MATERIAL
148
0.0
149
0.0
149
0.0
 93
        0
 94
        0
282
     0
 72
     1
 77
     1
171
     1
175
     1
179
     1
273
     0
  0
XRECORD
  5
70E
102
{ACAD_REACTORS
330
70D
102
}
330
70D
100
AcDbXrecord
102
MATERIAL
148
0.0
149
0.0
149
0.0
 93
        0
 94
        0
282
     0
 72
     1
 77
     1
171
     1
175
     1
179
     1
273
     0
  0
XRECORD
  5
710
102
{ACAD_REACTORS
330
70F
102
}
330
70F
100
AcDbXrecord
102
MATERIAL
148
0.0
149
0.0
149
0.0
 93
        0
 94
        0
282
     0
 72
     1
 77
     1
171
     1
175
     1
179
     1
273
     0
  0
ENDSEC
  0
EOF
